They Might Be Giants - Sexxy Chords & Tabs

 

Sexxy Chords & Tabs

They Might Be Giants Chords & Tabs

Version: 1 Type: Bass Tab 0 ratings
1 star 2 stars 3 stars 4 stars 5 stars
comments

Sexxy Bass Tab

#----------------------------------PLEASE NOTE---------------------------------#
#This file is the author's own work and represents their interpretation of the #
#song. You may only use this file for private study, scholarship, or research. #
#------------------------------------------------------------------------------#
#

			S-E-X-X-Y by They Might Be Giants

                      11x                               5x              
G---||----------------||--||------4---------------------||--------------
D---||*--------4--6--*||--||*--------4--3--4--3--4-----*||--------------
A---||*--4--4--------*||--||*--2--------------------2--*||--4--4--4-----
E---||----------------||--||----------------------------||--------------
                                                                        

                      The wierd thing again (2nd repeat)                
G------------------|-----------------------------------------------|----
D------------------|-----------------------------------------------|----
A---4--5--5--5--5--|-----------------------------------------------|----
E------------------|-----------------------------------------------|----
                                                                        

                                                                        
G-----------------------------------------------------------------------
D-----------------------------------------------------------------------
A---4--4--4--4--4--4--4--4--4--4--4--4--4--4--4--4--4--4--4--4--4--4----
E-----------------------------------------------------------------------
                                                                        

                                                                        
G------------------------------------------------------------------|----
D------------------------------------------------------------------|----
A---4--4--5--5--5--5--5--5--5--5--5--5--5--5--5--5--5--5--5--5--2--|----
E------------------------------------------------------------------|----
                                                                        
[ Tab from: http://www.guitartabs.cc/tabs/t/they_might_be_giants/sexxy_btab.html ]
    I'm not gonna go into the fancy slap,                               
G-----------------------------------------------------------------------
D-----------------------------------------------------------------------
A-----------------------------------------------------------------------
E-----------------------------------------------------------------------
                                                                        

    to hard for my 12 year old brain to             figure out.         
G-----------------------------------------------------------------------
D-----------------------------------------------------------------------
A-----------------------------------------------------------------------
E-----------------------------------------------------------------------
                                                                        



========================================================================
==                       TABLATURE EXPLANATION                        ==
========================================================================

----------                ----------                ----t---
----5h8--- Hammeron       ----(8)--- Ghost          ----6--- Tap
----------                ---------- Note           --------
----5p8--- Pulloff        ----------                --------

----------                ----------                -----p--
----5/8--- Slide Up       -----x---- Dead           -----7-- Pop
----------                ---------- Note           --s-----
----5\8--- Slide Down     ----------                --5----- Slap 

----------                ||------|| Repeat         --------
----5~~~-- Vibrato        ||*----*||                ---5^--- Bend
----------                ||*----*||                --------
----------                ||------||                --------

----------                ----------                --------
-4:------- Time           ----------                --------
-4:------- Signature      ----------                --------
----------                ----------                --------

Rhythm:
  w = whole note            W = dotted whole
  h = half note             H = dotted half
  q = quarter note          Q = dotted quarter
  e = eighth note           E = dotted eighth
  s = sixteenth note        S = dotted sixteenth
  t = 32nd note             T = dotted 32nd
  x = 64th note             X = dotted 64th
  ^ = triplet

========================================================================
==      Created with TABESTRY Tab Creation Software for Windows       ==
==               For more info email gse@ocsystems.com                ==
========================================================================
Comments