They Might Be Giants - Narrow Your Eyes Chords & Tabs

 

Narrow Your Eyes Chords & Tabs

They Might Be Giants Chords & Tabs

Version: 1 Type: Bass Tab 0 ratings
1 star 2 stars 3 stars 4 stars 5 stars
comments

Narrow Your Eyes Bass Tab

THEY MIGHT BE GIANTS
Narrow Your Eyes
tabbed by Jason The Great

STANDARD TUNING

INTRO
G|----------------------------------------------------------------------|
D|----------------------------------------------------------------------|
A|-5--5-5--5--5-5--0--0-3-0------------------0--0-0--2--2-2--0----------|
E|--------------------------3--3-3-2--0-0-0--------------------3-0--0-0-|

VERSE
G|----------------------------------------------------------------|
D|------------------------------------------------------------0-2-|
A|-5-5-3-2---5-5-3-2---0--0-3-0------------5-3-2--------0-2-3-----|
E|---------3---------3----------3--3-3-1-0-------3--3-3-----------|
[ Tab from: http://www.guitartabs.cc/tabs/t/they_might_be_giants/narrow_your_eyes_btab.html ]
PRECHORUS
G|-------------------------------------------------------------------------|
D|-------------------------------------------------------------------------|
A|------5-3-2--------7-5-3--------5-7-8-----------------5-3-2--------7-5-3-|
E|-3--3-------3-5--5-------5-7--7-------7-0--0-1-3-3--3-------3-5--5-------|

CHORUS
G|---------------------------------|
D|---------------------------------|
A|-5-5----------3-5-7-5--5-5-------|
E|-----3-7-5--5--------------3-7-5-|

INTERLUDE
G|---------------------------|
D|---------------------------|
A|---------------------------|
E|-0--0-0--0--0-0--0--0-0--0-|

G|--------------------------------------------------------|
D|--------------2---------------0-3-0--2-0----------------|
A|-----2----0-3---3----0-3-0--2------------3-2-0--------5-|
E|-0-3---3-----------1---------------------------3-1-0----|
                                       \_____________/
                                      the timing on this
                                          is wrong

and then there is that

Comments