They Might Be Giants - John Lee Supertaster Chords & Tabs

 

John Lee Supertaster Chords & Tabs

They Might Be Giants Chords & Tabs

Version: 1 Type: Bass Tab 0 ratings
1 star 2 stars 3 stars 4 stars 5 stars
comments

John Lee Supertaster Bass Tab

Artist: They Might Be Giants
Song: John Lee Supertaster
Album: No!

Tabbed by: John David Crafton (hypertext_eye@yahoo.com)
[ Tab from: http://www.guitartabs.cc/tabs/t/they_might_be_giants/john_lee_supertaster_btab.html ]
G|--------------------------------|
D|----------------------------12\-|
A|--------------------------------|
E|--------------------------------|
  ^       ^       ^       ^
G|--------7-5---------------------|------------------5---7---5-----|
D|--------------7---5-----5---7---|5---5-------5---7-----------7---|
A|5---5---------------8-----------|--------------------------------|
E|--------------------------------|--------------------------------|
  ^       ^       ^       ^        ^       ^       ^       ^
G|--------7-5---7---5-------------|--------------------------------|
D|--------------------7---5---7---|5---5-------5---7-5-------------|
A|5---5---------------------------|----------------------8---5-----|
E|--------------------------------|----------------------------8---|
  ^       ^       ^       ^        ^       ^       ^       ^
G|--------7-5---------------------|------------------5---5---5-----|
D|--------------7---5-----5---7---|5---5-------5---7---7-------7---|
A|5---5---------------8-----------|--------------------------------|
E|--------------------------------|--------------------------------|
  ^       ^       ^       ^        ^       ^       ^       ^
G|--------7-5---------------------|--------------------5-----5-----|
D|--------------7---5-----5---7---|5---5-------5---5-7---5-7---7/--|
A|5---5---------------8-----------|--------------------------------|
E|--------------------------------|--------------------------------|
  ^       ^       ^       ^        ^       ^       ^       ^
G|--------9-7---------------------|------------------7---9---7-----|
D|--------------9---7-----7---9---|7---7-------7---9-----------9---|
A|7---7---------------10----------|--------------------------------|
E|--------------------------------|--------------------------------|
  ^       ^       ^       ^        ^       ^       ^       ^
G|--------9-7---9---7-------------|--------------------------------|
D|--------------------9---7---9---|7---7-------7---9-7-------------|
A|7---7---------------------------|--------------------107-----7\--|
E|--------------------------------|--------------------------10----|
  ^       ^       ^       ^        ^       ^       ^       ^
G|--------------------------------|--------------------------------|
D|--------------------------------|----------------0---0---2-------|
A|----------------0---0-------0---|2---2-----0-2-4-------------4---|
E|2---2-----0-2-4-----------------|--------------------------------|
  ^       ^       ^       ^        ^       ^       ^       ^
G|--------------------------------|--------------------------------|
D|--------------------------------|------------------2---4---2-----|
A|----------------0---0-------0---|2---2-------2---4-----------4---|
E|2---2-----0-2-4-----------------|--------------------------------|
  ^       ^       ^       ^        ^       ^       ^       ^
G|--------------------------------|
D|--------------------------------|
A|--------------------------------|
E|2~--------------------------/---|
  ^       ^       ^       ^
G|--------7-5---------------------|------------------5---7---5-----|
D|--------------7---5-----5---7---|5---5-------5---7-----------7---|
A|5---5---------------8-----------|--------------------------------|
E|--------------------------------|--------------------------------|
  ^       ^       ^       ^        ^       ^       ^       ^
G|--------7-5---7---5-------------|--------------------------------|
D|--------------------7---5---7---|5---5-------5---7-5-------------|
A|5---5---------------------------|----------------------8---5-----|
E|--------------------------------|----------------------------8---|
  ^       ^       ^       ^        ^       ^       ^       ^
G|--------7-5---------------------|----------------7-5---5-----5---|
D|--------------7---5-----5---7---|5---5-------5-------7-----7-----|
A|5---5---------------8-----------|--------------------------------|
E|--------------------------------|--------------------------------|
  ^       ^       ^       ^        ^       ^       ^       ^
G|--------7-5---------------------|--------7-107-9---7-----7-------|
D|--------------7---5-----5---7---|5---5/--------------10------10--|
A|5---5---------------8-----------|--------------------------------|
E|--------------------------------|--------------------------------|
  ^       ^       ^       ^        ^       ^       ^       ^
G|--------9-7---------------------|--------------------------------|
D|--------------9---7-----7---9---|7---7-------7---9-7-------------|
A|7---7---------------10----------|----------------------10--7-----|
E|--------------------------------|---------------------------10---|
  ^       ^       ^       ^        ^       ^       ^       ^
G|--------9-7---------------------|------------------7---7---7-----|
D|--------------9---7-----7---9---|7---7-------7---9---9-------9\--|
A|7---7---------------10----------|--------------------------------|
E|--------------------------------|--------------------------------|
  ^       ^       ^       ^        ^       ^       ^       ^
G|--------------------------------|--------------------------------|
D|--------------------------------|----------------------2---2-----|
A|----------------0---0-------0---|2---2-------2---4---4-------4---|
E|2---2-----0-2-4-----------------|--------------------------------|
  ^       ^       ^       ^        ^       ^       ^       ^
G|--------------------------------|--------------------------------|
D|--------------------------------|------------------2---2---2-----|
A|----------------0---0-------0---|2---2-------2---4---4-------4---|
E|2---2-----0-2-4-----------------|--------------------------------|
  ^       ^       ^       ^        ^       ^       ^       ^
G|--------------------------------|
D|--------------------------------|
A|--------------------------------|
E|2~------------------------------|
  ^       ^       ^       ^
Comments