They Might Be Giants - Boss Of Me Chords & Tabs

 

Boss Of Me Chords & Tabs

They Might Be Giants Chords & Tabs

Version: 1 Type: Tab 0 ratings
1 star 2 stars 3 stars 4 stars 5 stars
comments

Boss Of Me Tab

   
Intro

E|--8---8---8---8---10---10---10---10---3---3---3---3---8---8---x—x—x--x    
B|--8---8---8---8---10---10---10---10---3---3---3---3---8---8---x—x—x--x
G|--9---9---9---9---11---11----11---11---4---4---4---4---9---9----x—x—x--x
D|--x---x---x---x---x----x-----x---x----x---x---x---x---x---x----2—2—2--2
A|--x---x---x---x---x----x-----x---x----x---x---x---x---x---x----2—2—2--2
E|--x---x---x---x---x----x-----x---x----x---x---x---x---x---x----0—0—0—0
[ Tab from: http://www.guitartabs.cc/tabs/t/they_might_be_giants/boss_of_me_tab.html ]
Chorus
Strum the chorus any way you like, sounds best of its played really fast.
E|--x---x---x---x---x----x-----x---x----x---x---x---x---x---x-----x---x---x--
B|--x---x---x---x---x----x-----x---x----x---x---x---x---x---x-----x---x---x--
G|--x---x---x---x---x----x-----x---x----x---x---x---x---x---x-----x---x---x--
D|--x---x---x---x---x----x-----x---x----x---x---x---x---x---x-----x---x---x--
A|--5----5----5----5----7----7----7----7---10---10---10---10---12----12---12
E|--3----3----3----3----5----5----5----5----8----8----8----8----10----10---10
“You’re mot the boss of me now,…”  P.M, P.M.,…
Verse
G (320032)
? (022033)
? (010033)
? (000233)

C, D, G, C, Em

Chorus

Email me rocklegend@hotmail.com
Comments