They Might Be Giants - Boss Of Me Chords & Tabs

 

Boss Of Me Chords & Tabs

They Might Be Giants Chords & Tabs

Version: 1 Type: Bass Tab 0 ratings
1 star 2 stars 3 stars 4 stars 5 stars
comments

Boss Of Me Bass Tab

BOSS OF ME - They Might be Giants


By: Matt c    *s=slide* listen for timing. This is most right but so far im 
the only one who's tabbed this song for bas

  "your not the boss of me now"
G|---------------------------------------------------------------------------|
D|---------------------------------------------------------------------------|
A|---------------------------------------------------------------------------|
E|22-11-333333333333333-55555555555555-77777777777777-999-777-555------------|

  "Life is unfair so i just stare"
G|---------------------------------------------------------------------------|
D|---------------------------------------------------------------------------|
A|--------------3-3s53-4s65-6432---------------------------------------------|
E|3-3s53-3-3s53--------------------------------------------------------------|
[ Tab from: http://www.guitartabs.cc/tabs/t/they_might_be_giants/boss_of_me_btab.html ]
  "why i Why im in this room"
G|---------------------------------------------------------------------------|
D|---------------------------------------------------------------------------|
A|---------------------------------------------------------------------------|
E|--3--3--3--5--5------------------------------------------------------------|

   " YOUR NOT THE BOSS OF ME NOW "
G|---------------------------------------------------------------------------|
D|---------------------------------------------------------------------------|
A|---------------------------------------------------------------------------|
E|22-11-333333333333333-55555555555555-77777777777777-999-777-555------------|

 "life is a test"
G|---------------------------------------------------------------------------|
D|---------------------------------------------------------------------------|
A|-----------------3-3s53-4s65-6432------------------------------------------|
E|-3-3s53-3-3s53-------------------------------------------------------------|
 
"your not the boss of me now " play for the remainder of the
song except for the guitar solo
G|---------------------------------------------------------------------------|
D|---------------------------------------------------------------------------|
A|---------------------------------------------------------------------------|
E|22-11-333333333333333-55555555555555-77777777777777-999-777-555------------|
Comments