Thermos - Damn Fine Chords & Tabs

 

Damn Fine Chords & Tabs

Thermos Chords & Tabs

Version: 1 Type: Tab 0 ratings
1 star 2 stars 3 stars 4 stars 5 stars
comments

Damn Fine Tab

Thermos - Damn Fine
			13th of October, 2004.
Standard tuning.
By Eivind Døvik.

Comments: edru@bluescreen.as


Intro

 ---3--0---------------------------------------------------------------
 ---------3--0---------------------------------------------------------
 ---------------3--2^---/12---15-14-12-15-14-12-15-12-15-14-12-14b^----
 ----------------------------------------------------------------------
 ----------------------------------------------------------------------
 ----------------------------------------------------------------------

Verse
[ Tab from: http://www.guitartabs.cc/tabs/t/thermos/damn_fine_tab.html ]
 -------------------------------------------------
 -------------------------------------------------
 ------------------------------------9------------
 --6-6-6-6-6-6-6-8~--6-6-6-6-6-6-6-9-9-9----------
 --6-6-6-6-6-6-6-8~--6-6-6-6-6-6-6-9-7-9----------
 --4-4-4-4-4-4-4-4~--4-4-4-4-4-4-4-7---7----------

Bridge

 -----------------------------------------
 -----------------------------------------
 -----------------------------------------
 --7-7-9-7-7-7-9-7-7-7-9-7-7-7-9-7-7-5--5-
 --7-7-9-7-7-7-9-7-5-7-9-7-5-7-9-7-5-5--5-
 --5-5-5-5-5-5-5-5-5-5-5-5-5-5-5-5-5-3--3-

Chorus

 --------------------------------
 --------------------------------
 --7-7-7-7-7-7-------------------
 --7-7-7-7-7-7--8-8-8-8-7-7-7-7--
 --5-5-5-5-5-5--8-8-8-8-7-7-7-7--
 ---------------6-6-6-6-5-5-5-5--

Comments