Therion - Schwarzalbenheim Chords & Tabs

 

Schwarzalbenheim Chords & Tabs

Therion Chords & Tabs

Version: 1 Type: Tab 0 ratings
1 star 2 stars 3 stars 4 stars 5 stars
comments

Schwarzalbenheim Tab

ARTISTA-THERION
TITULO-SCHWARZALBENHEIM
ALBUM-SECRET OF THE RUNES
Transcribed By:David R.F.
luvapefrank@yahoo.com.mx

yu can send tab of muspelheim the same disk, or
where can to get.

a y me pueden mandar la tab de muspelheim del mismo disco o donde
la puedo conseguir.

pm..]= palm mute

/= slide up

\= slide down

RIFF 1      X8          X8          X8         X8
e |-----------|-----------|-----------|-----------------|
B |-----------|-----------|-----------|-----------------|
G |-44444-444-|-----------|-----------|-44444-444-------|
D |-44444-444-|-66666-666-|-33333-333-|-44444-444-------|
A |-22222-222-|-66666-666-|-33333-333-|-22222-222-------|
E |-----------|-44444-444-|-11111-111-|-----------------|

RIFF 2
e |----------------------|-------------------------|
B |----------------------|-------------------------|
G |-3-3-3-3-333-6-4-3----|-3-3-3-333-7/8/9\8\7\6---|
D |-3-3-3-3-333-6-4-3----|-3-3-3-333-7/8/9\8\7\6---|
A |-1-1-1-1-111-4-2-1----|-1-1-1-111-5/6/7\6\5\4---|
E |----------------------|-------------------------|
[ Tab from: http://www.guitartabs.cc/tabs/t/therion/schwarzalbenheim_tab.html ]
RIFF 3
e |-----------------------|
B |-----------------------|
G |-7-7-12-10-9-7---------|
D |-7-7-12-10-9-7---------|
A |-5-5-10--8-7-5---------|
E |-----------------------|

ERIFF 4
e |-------------------|
B |-------------------|
G |-9-9-999-9-9-------|
D |-9-9-999-9-9-------|
A |-7-7-777-7-7-------|
E |-------------------|

RIFF 5
e |----------------------|---------------|
B |----------------------|---------------|
G |-3-3-3-3-333-6-4-3----|-3-3-3-333-5---|
D |-3-3-3-3-333-6-4-3----|-3-3-3-333-5---|
A |-1-1-1-1-111-4-2-1----|-1-1-1-111-3---|
E |----------------------|---------------|

RIFF 6              X4                   X4
e |----------------------|-------------------|
B |----------------------|-------------------|
G |---------5------------|-------------------|
D |-5-4-5-4---4-5-4------|---------5---------|
A |----------------------|-5-4-5-4---4-5-4---|
E |----------------------|-------------------|
  ].....................PM...................]


OUTRO
e |---------|
B |---------|
G |-9-9-----|
D |-9-9-----|
A |-7-7-----|
E |---------|
ORDEN

RIFF 1 (X1)
RIFF 2 (X2)
RIFF 3 (X1)
RIFF 4 (X1)
RIFF 5 (X8)

RIFF 3 (X1)
RIFF 4 (X1)
RIFF 6 (X2)

RIFF 2 (X2)
RIFF 3 (X1)
RIFF 4 (X1)

RIFF 5 (X8)

OUTRO  (X1)
Comments