Therion - Let The New Day Begin Chords & Tabs

 

Let The New Day Begin Chords & Tabs

Therion Chords & Tabs

Version: 1 Type: Tab 0 ratings
1 star 2 stars 3 stars 4 stars 5 stars
comments

Let The New Day Begin Tab

   
Therion "Let the new day begin"
Lepaca Kliffoth
tabbed by: Drew Schinzel 
5/1/00


Legend:
-------
p pull off
~ vibrato
/ slide up
\ slide down
* repeat


C# tuning (every string down 1.5 steps)

 riff 1
|-------------------------------|---------------------------------|
|-------------------------------|---------------------------------|
|-------------------------------|---------------------------------|
|-2------------4---2---7--5--7--|--2------------4---2---7--5------|
|-2------------4---2---7--5--7--|--2------------4---2---7--5------|
|-0--0-0--4-0--2---0---5--3--5--|--0--0-0--4-0--2---0---5--3--3~--|
                                 the last note is bent slightly..
                                 during the verse play a full G5 at the end


|-----------------------------------|--------------------------------------------|
|-----------------------------------|--------------------------------------------|
|-----------------------------------|--------------------------------------------|
|-2-------------4---2---7--5--7-7\--|--------------------------------------------|
|-2-------------4---2---7--5--7-7\--|--------------------------------------------|
|-0--0-0--4-0---2---0---5--3--5-5\--|--0--0--0-4--0-5--0-6--8p7-8p7-8p7-8p7-8p7--|

 riff 2 0:30
|-----------------------------------|----------------------------------|
|-----------------------------------|----------------------------------|
|------9---10--7--9-----------------|------9---10--7--9----------------|
|--2---9---10--7--9---2---3--5--3---|--2------------------2---3--5--3--|
|--2---7---8---5--7---2---3--5--3---|--2---7---8---5--7---2---3--5--3--|
|--0------------------0---1--3--1---|--0------------------0---1--3--1--|

 riff 3 0:44
|-----------------------------------|
|-----------------------------------|
|------9--10-9-7-9------------------|
|-2-2--9--10-9-7-9---2-2-2-2--3-3---|
|-2-2--7--8--7-5-7---2-2-2-2--3-3---|
|-0-0----------------0-0-0-0--1-1---|
 only play one low E5 after the first time

 riff 4 0:57
|--------------------------------------------------------------|
|--------------------------------------------------------------|
|-10---10--9--10---10---10--9--10---9---9--7--9---9---9--7--9--|
|-10---10--9--10---10---10--9--10---9---9--7--9---9---9--7--9--|
|-8----8---7--8----8----8---7--8----7---7--5--7---7---7--5--7--|
|--------------------------------------------------------------|
[ Tab from: http://www.guitartabs.cc/tabs/t/therion/let_the_new_day_begin_tab.html ]
 riff 5 1:09
|--------------------|---------------------|
|--------------------|---------------------|
|*--4-----4---2-4---*|*--9-----9---7-9----*|
|*--4-----4---2-4---*|*--9-----9---7-9----*|
|---2-2-2-2-2-0-2-2--|---7-7-7-7-7-5-7-7---|
|--------------------|---------------------|

 riff 6 2:15
|---------------------------------------------------------------------------|
|---------------------------------------------------------------------------|
|*-------------------------------------------------------------------------*|
|*-----10-10-9-9-7-7------9-9-7-7-------------------------------------7-7--*|
|--8-8----------------7-7---------10-10-----9-9-7-7-6-6-7-7-9-9-10-10-------|
|---------------------------------------7-7---------------------------------|


|-----------------------------------------------------------------------------|
|-----------------------------------------------------------------------------|
|*---------------------------------------------------------------------------*|
|*-----101010-999-777-----999-777---------------------------------------777--*|
|--888----------------777---------101010-----999-777-666-777-999-101010-------|
|----------------------------------------777----------------------------------|

 riff 7 3:05 under the solo
|---------------------|---------------------------------------|
|---------------------|---------------------------------------|
|---------------------|--------------------------5------------|
|--2---2--4-5-----5-5-|--5--7---5--7---7-\5--5---5--5---2-----|
|--2---2--4-5-----5-5-|--5--7---5--7---7\-5--5---3--5---2-----|
|--0---0--2-3-----3-3-|--3--5---3--5---5\-3--3------3---0-----|

  solo
|------------------------------------------------------10--7--7-----7~--|
|---------------------------------------------------------------10------|
|--9~--11-12--11-9~------------------9~--11-12--11-9~-------------------|
|-------------------12--9~--9----9~-------------------------------------|
|-----------------------------12----------------------------------------|
|-----------------------------------------------------------------------|

|--7\5-5~--7-8--7-5~--5/12-12--10/15~~--------------------|
|----------------------------------------8~--8\7-7/8-8~---|
|---------------------------------------------------------|
|---------------------------------------------------------|
|---------------------------------------------------------|
|---------------------------------------------------------|

  This last part may not be -completely- accurate, it's fast and the timing is
a
  little odd at times.
|--10-8-7--------10-8-7---------10-8-7--------10-8-7-------------|
|---------10-8-7--------10-8-7---------10-8-7--------10-8-7------|
|------------------------------------------------------------9~--|
|----------------------------------------------------------------|
|----------------------------------------------------------------|
|----------------------------------------------------------------|
Comments