Therion - Lemuria Chords & Tabs

 

Lemuria Chords & Tabs

Therion Chords & Tabs

Version: 1 Type: Bass Tab 0 ratings
1 star 2 stars 3 stars 4 stars 5 stars
comments

Lemuria Bass Tab

   
-------------------------------------------------------------------------------
     LEMURIA - Therion
-------------------------------------------------------------------------------

Tabbed By: Sabredog
e-mail: sabredog@gmail.com

Tuning: GDAE top downwards. Normal four-string. :D

This is a really easy tab, so you should have no trouble with it. Great for beginners.

For the first bit there's no bass whatsoever, just some acoustic, until...

1:04 - Bass comes in
G|----------------|----------------|----------------|----------------|
D|0~------0~------|0~------0-0~----|----------------|----------------|
A|----------------|----------------|3~------3~------|0~------0-0~----|
E|----------------|----------------|----------------|----------------|
Captain did    you find              Land   of      Mu       eldorado for the seaman


G|----------------|----------------|----------------|----------------|
D|0~------0~------|0~------0-0~----|----------------|----------------|
A|----------------|----------------|3~------3~------|0~------0-0~----|
E|----------------|----------------|----------------|----------------|
Or did you sink    Your dreams      AAAAAAAAAAAAAAAH In the siren's symphony
                           Lose your ship        (:p)


[Chorus]
G|----------------|----------------| 
D|0~------0~------|5---------------| x
A|----------------|----3---3555~---|   4
E|----------------|----------------| 
When the sailman's... etc.


[ Tab from: http://www.guitartabs.cc/tabs/t/therion/lemuria_btab.html ]
[Bridge]
G|-----------------------|-----------------------|-----------------------|-----------------------|
D|------7---7------7-7---|------7---7------7-7---|------5---5------5-5---|------2---2------2-2---| x
A|5----5-----5----5-5----|5----5-----5----5-5----|3----3-----3----3-3----|0----0-----0----0-0----|  2
E|-----------------------|-----------------------|-----------------------|-----------------------|



...Lemuria, RISE!
[Chorus]
G|----------------|----------------| 
D|0~------0~------|5---------------| x
A|----------------|----3---3555~---|   4
E|----------------|----------------| 
When the sailman's... etc.



G|----------------|----------------|----------------|----------------|
D|----------------|----------------|----------------|----------------|
A|5-5-5-5-5-5-5-5-|0-0-0-0-0-0-0-0-|3-3-3-3-3-3-3-3-|5-5-5-5-5-5-5-5-|
E|----------------|----------------|----------------|----------------|

G|----------------|----------------|----------------|----------------|----------------|----------------|
D|----------------|----------------|----------------|----------------|----------------|----------------|
A|0-0-0-0-0-0-0-0-|----------------|0-0-0-0-0-0-0-0-|0-0-0-0-0-0-0-0-|0-0-0-0-0-0-0-0-|0-0-0-0-0-0-0-0-|
E|----------------|3-3-3-3-3-3-3-3-|----------------|----------------|----------------|----------------|


[Outro]
This is just the chorus followed by a single D-zero. :)
G|----------------|----------------| 
D|0~------0~------|5---------------| x
A|----------------|----3---3555~---|   4
E|----------------|----------------| 

G|--|
D|0~|
A|--|
E|--|


| /  slide up
| \  slide down
| h  hammer-on
| p  pull-off
Comments