Therion - Enter Vril Ja Chords & Tabs

 

Enter Vril Ja Chords & Tabs

Therion Chords & Tabs

Version: 1 Type: Tab 0 ratings
1 star 2 stars 3 stars 4 stars 5 stars
comments

Enter Vril Ja Tab

Therion "Enter Vril-Ja"
Deggial
Tabbed by: Drew Schinzel 
2/27/00

Standard tuning.

Legend:
-------
~ vibrato
/ slide up



 intro	                  riff 1                                 
|--------------------|----------------------------------------|
|--------------------|----------------------------------------|
|--------------------|----------------------------------------|
|--------------------|--7-7-7--5-5-5--7-7--8-8-8-8-8-8-8-8----|
|-0-0-0-0--0-0-0-0---|----------------------------------------|
|--------------------|----------------------------------------|

|------------------------------------------------------------------------|
|--6-----5-----6-----8-----6----5---5/6--6-6----------5/6--6-6-----------|
|--7-----6-----7-----9-----7----6---6/7--7-7----------6/7--7-7-----------|
|----0-0---0-0---0-0---0-0---0----0----------0-0-0-0-----------0-0-0-0---|
|------------------------------------------------------------------------|
|------------------------------------------------------------------------|

 riff 2 This one's a little hard to hear, so it could be wrong
|------------------------------------------------------------------|
|-6-----6-----6-----6-----6---6-6--5-----5-----5---3-5-5-----------|
|-7-----7-----7-----7-----7---7-7--6-----6-----6---4-6-6-----------|
|---0-0---0-0---0-0---0-0---0--------0-0---0-0---0-------0-0-0-0---|
|------------------------------------------------------------------|
|------------------------------------------------------------------|
[ Tab from: http://www.guitartabs.cc/tabs/t/therion/enter_vril_ja_tab.html ]
 After the first time through riffs 1 and 2, play this A5.  
There's a clean part after that, but usually I just mess around with
A5, G5, and F5 in whatever combination.
|---------------------------------------------------------|
|---------------------------------------------------------|
|--2------------------------------------------------------|
|--2------------------------------------------------------|
|--0------------------------------------------------------|
|---------------------------------------------------------|

riff 3  each note 16 times                                 
|-------------------------------|
|-------------------------------|
|-------------------------------|
|--0------------0--2--3--2------|
|-----2--3--2-------------------|
|-------------------------------|
                                                           
 mini sort-of solo but not really                                          
|----------------------------------------------------------------------|
|----------------------------------------------------------------------|
|------------9----------------------------------7--------9--7----------|
|-9--10--12-----12--10-----------------7--9--10---10--9--------10-9~---|
|-----------------------11---------------------------------------------|
|--------------------------13-10-12~-----------------------------------|

|-----------------------------------------------------------------|
|-----------------------------------------------------------------|
|----------7-----------------------------9--------10--9----9~~----|
|-7--9--10---10--9--6----------9--10--12---12--10-------12--------|
|---------------------8-5-7~--------------------------------------|
|-----------------------------------------------------------------|
Comments