Therapy - Therapy Various Chords & Tabs

 

Therapy Various Chords & Tabs

Therapy Chords & Tabs

Version: 2 Type: Tab 0 ratings
1 star 2 stars 3 stars 4 stars 5 stars
comments

Therapy Various Tab

   
#----------------------------------PLEASE NOTE---------------------------------#
#This file is the author's own work and represents their interpretation of the #
#song. You may only use this file for private study, scholarship, or research. #
#------------------------------------------------------------------------------##
Ok! Here are some Therapy? songs. All of them were tabbed
by Martin Wikstrom in Sundsvall, Sweden...
I guess there are some mistakes (since I used my acoustic guitar
when picking these songs out). But I think it sounds good enough to me...

I almost always use power chords... Donot know if thats right...
Judge yourself


@song: Knives

                 My girlfriend says            That I need help
   F5 F5 F5 E5                      F5 F5 F5 E5
e---------------------------------------------------------------------|
B---------------------------------------------------------------------|
G---------------------------------------------------------------------|
D--3--3--3--2-----------------------3--3--3--2------------------------|
A--3--3--3--2-----------------------3--3--3--2------------------------|
E--1--1--1--0-----------------------1--1--1--0------------------------|


But you canot have the knives    (back to start)
    G5 A5          C5  G5  C5  E5
e---------------------------------------------------------------------|
B---------------------------------------------------------------------|
G---------------------------------------------------------------------|
D---5--7-----------10--5-------10--2----------------------------------|
A---5--7-----------10--5-------10--2----------------------------------|
E---3--5--x--x--x--8---3-x-x-x-8---0----------------------------------|

e---------------------------------------------------------------------|
B---------------------------------------------------------------------|
G---------------------------------------------------------------------|
D--3--3--3--2222222222------------------------------------------------|
A--3--3--3--2222222222------------------------------------------------|
E--1--1--1--0000000000------------------------------------------------|

:You have to figure out yourself in which order the parts come
afterwards.

:You also have to figure out the solo yourself. Itos not that hard.
Although it sounds awful itos quite cool.


@ Screamager

Part 1

e---------------------------------------------------------------------|
B---------------------------------------------------------------------|
G-------------5-5-5------------5-5-5---7-7-7--------------------------|
D----2-2-2----5-5-5---2-2-2----5-5-5---7-7-7--------------------------|
A----2-2-2----3-3-3---2-2-2----3-3-3---5-5-5--------------------------|
e----0-0-0------------0-0-0-------------------------------------------|

Part 2
add MUCHO vibrato
e---------------------------------------------------------------------|
B---------------------------------------------------------------------|
G---9-9-9--12-12--12--9-9-9--12-12-12--14--14-------------------------|
D---------------------------------------------------------------------|
A---------------------------------------------------------------------|
E---------------------------------------------------------------------|

Part 3

e---------------------------------------------------------------------|
B---------------------------------------------------------------------|
G---------------------------------------------------------------------|
D---(2)-2---5-5-4-5--------5-5-4-5--------5-5-4-5---0-0-7-7-5-4-------|
A--------------------3-3----------------------------------------------|
E------------------------------------3-3------------------------------|

:The solo in this tune is almost the same as part 2. Just continue
higher up on the G string.


@ Opal Mantra


e---------------------------------------------------------------------|
B---------------------------------------------------------------------|
G---------------------------------------------------------------------|
D----5---5---5---5----5---6\5/6\5-----5---5---5---5--5-\3-/6----------|
A----5---5---5---5----5---6\5/6\5-----5---5---5---5--5-\3-/6----------|
E----3-x-3-x-3-x-3----3---4\3/4\3-----3-x-3-x-3-x-3--3-\1-/4----------|


e---------------------------------------------------------------------|
B---------------------------------------------------------------------|
G---------------------------------------------------------------------|
D----5--------------------6--8--------5-----------------3--6----------|
A---------------------------------------------------------------------|
E---------------------------------------------------------------------|

  Iove never really cared about you...
e-----3----4-----1---3------------------------------------------------|
B-----3----4-----1---3------------------------------------------------|
G-----4----5-----2---4------------------------------------------------|
D-----5----6-----3---5------------------------------------------------|
A-----5----6-----3---5------------------------------------------------|
E-----3----4-----1---3------------------------------------------------|

:some kind of a solo

e---------------------------------------------------------------------|
B---------------------------------------------------------------------|
G---------------------------------------------------------------------|
D----5-----5-5--6-6-5-6-5-3-5-3--5/8-8-5-6-5--------------------------|
A---------------------------------------------------------------------|
E---------------------------------------------------------------------|

@ Hellbelly

:Intro and verse

      B5          C5  G5       C5  B5  C5   G5
e-----------------------I---------------------------------------------|
B-----------------------I---------------------------------------------|
G-----------------------I-----------------------------5---------------|
D-----9--x--x--x--10--5xI-x--x-10--9---10---5-------5-----9-9-5-------|
A-----9--x--x--x--10--5xI-x--x-10--9---10---5-----5-------------------|
E-----7--x--x--x---8--3xI-x--x--8--7----8---3-------------------------|


  Jesus without the suffering (??)

      E5  E5     D5  D5   A5
e---------------------------------------------------------------------|
B---------------------------------------------------------------------|
G-----9---9------7---7------------------------------------------------|
D-----9---9------7---7----7-------------------------------------------|
A-----7---7------5---5----7-------------------------------------------|
E-------------------------5-------------------------------------------|

  Solo

e--------5------7-----5--7/12------12--------7/8/7---------------------|
B------5-----5------5----------10-------10-----------------------------|
G----------------------------------------------------------------------|
D----------------------------------------------------------------------|
A----------------------------------------------------------------------|
E----------------------------------------------------------------------|

e--------5------7-----5---3---?---?-?---------------------------------|
B------5-----5------5-----------?-------------------------------------|
G---------------------------------------------------------------------|
D---------------------------------------------------------------------|
A---------------------------------------------------------------------|
E---------------------------------------------------------------------|

@ Accelerator

Intro: G (35543X)

e---------------------------------------------------------------------|
B---------------------------------------------------------------------|
G---------------------------------------------------------------------|
D----------------------9----------------------------------------------|
A---7-7-7-7...----5-7-------------------------------------------------|
E---------------------------------------------------------------------|

e---------------------------------------------------------------------|
B---------------------------------------------------------------------|
G---7--7--7-..--------------------------------------------------------|
D---7--7--7-..--------------------------------------------------------|
A---5--5--5-..----7-7-7-7-7-7-7-7-7-7-7-7-7---------------------------|
E---------------------------------------------------------------------|

   Iom the the driver iom in control..

      D5                        E5
e---------------------------------------------------------------------|
B---------------------------------------------------------------------|
G-----7-..----------------------9-------------------------------------|
D-----7-..----------------------9-------------------------------------|
A-----5-..----------------------7-------------------------------------|
E---------------------------------------------------------------------|
[ Tab from: http://www.guitartabs.cc/tabs/t/therapy/therapy_various_tab_ver_2.html ]
     E5    C5 B5 A5 F5     E5   C5 B5 A5 F5....
e---------------------------------------------------------------------|
B---------------------------------------------------------------------|
G----9-9------------10------------------------------------------------|
D----9-9---10-9--7--10------------------------------------------------|
A----7-7---10-9--7--8-------------------------------------------------|
E----------8--7--5----------------------------------------------------|



@ Nowhere


e---------------------------------------------------------------------|
B---------------------------------------------------------------------|
G---------------------------------------------------------------------|
D-----9p7h9p7h9-and-so-on---------------------------------------------|
A---------------------------------------------------------------------|
E---------------------------------------------------------------------|

:Intro and chorus

      A5      A5  E5      E5 F#5     F#5 D5      D5
e---------------------------------------------------------------------|
B---------------------------------------------------------------------|
G----------------------------------------7-x-x-x-7--------------------|
D-----7-x-x-x-7---2-x-x-x-2--4-x-x-x-4---7-x-x-x-7--------------------|
A-----7-x-x-x-7---2-x-x-x-2--4-x-x-x-4---5-x-x-x-5--------------------|
E-----5-x-x-x-5---0-x-x-x-0--2-x-x-x-2--------------------------------|

      Heaven kicked you out ...
      You wouldnot wear a tie ...
      E5      E5 F#5     F#5 D5      D5 D5
e---------------------------------------------------------------------|
B---------------------------------------------------------------------|
G----------------------------7-x-x-x-7--7-----------------------------|
D-----2-x-x-x-2--4-x-x-x-4---7-x-x-x-7--7-----------------------------|
A-----2-x-x-x-2--4-x-x-x-4---5-x-x-x-5--5-----------------------------|
E-----0-x-x-x-0--2-x-x-x-2--------------------------------------------|

      Staring at some pictures by yourself...

e---------------------------------------------------------------------|
B---------------------------------------------------------------------|
G-----6-------4-----------7-------7-------7-------7-------------------|
D-----6-------4-----------7-------7-------7-------7-------------------|
A-----4-------2------x-x--5--x-x--5--x-x--5--x-x--5-------------------|
E--------------------x-x-----x-x-----x-x-----x-x----------------------|

:Bridge (or whatever this is called)

e---------------------------------------------------------------------|
B---------------------------------------------------------------------|
G---------------------------------------------------------------------|
D-----6-7------6-7-6-7-------6-7-------6-7-6-7------------------------|
A---------------------------------------------------------------------|
E---------------------------------------------------------------------|

:Solo

:All notes with a "b" is bent 1/2 step (1 fret)
 Use a lot of vibrato

e----------------------------------------------------------------------|
B-----14b--13b---11b-9b-----------------------14b--13b-11b-9b----------|
G---------------------------6b-6--4-6-4--2----------------------6b-6---|
D----------------------------------------------------------------------|
A----------------------------------------------------------------------|
E----------------------------------------------------------------------|

@ Die Laughing

:Intro and some of the verses

e---------------------------------------------------------------------|
B---------------------------------------------------------------------|
G--------------7-------------------7---7-------------4------4---4-----|
D-----5-5-5-5----5-5-5-5-5-5-5-5-5---5-------2-2-2-2---2...---2-------|
A---------------------------------------------------------------------|
E---------------------------------------------------------------------|

      D               C               G
    I think iove gone insane...
e---------------------------------------------------------------------|
B-----7-.......-------5.......----------------------------------------|
G-----7-.......-------5.......--------5........-----------------------|
D-----7-.......-------5.......--------6........-----------------------|
A-----5-.......-------3.......--------6........-----------------------|
E-------------------------------------3........-----------------------|

: the points mean ostrike the chord a couple of timeso (!)


: Bridge

      D5        C5

e---------------------------------------------------------------------|
B---------------------------------------------------------------------|
G-----7--7------5--5--------------------------------------------------|
D-----7--7------5--5--------------------------------------------------|
A-----5--5------3--3--------------------------------------------------|
E---------------------------------------------------------------------|

e---------------------------------------------------------------------|
B-----10----------------------12--------------------------------------|
G---------9--10-------------------10--12------------------------------|
D---------------9--10---------------------10--12----------------------|
A----------------------9^-------------------------10^-----------------|
E---------------------------------------------------------------------|

      G        E
e---------------------------------------------------------------------|
B-----8-...----5...---------------------------------------------------|
G-----7-...----4...---------------------------------------------------|
D-----5-...----2...---------------------------------------------------|
A---------------------------------------------------------------------|
E---------------------------------------------------------------------|

@ Totally Random Man

: I cant really figure out how to play these power chords
  But this is my best pick

: Intro and chorus

     B5       A5                G5
e---------------------------------------------------------------------|
B---------------------------------------------------------------------|
G---------------------------------------------------------------------|
D----9-9------7-7-7------7-7----5-5-5---------------------------------|
A----9-9------7-7-7------7-7----5-5-5---------------------------------|
E----7-7--------5-5------5-5------3-3---------------------------------|

:Bass line

G---------------------------------------------------------------------|
D---------------------------------------------------------------------|
A----2-2-2...---0-0-0-0---3-3-3-3--2-2-2....--0-0-0-0--3-3-3-3--------|
E---------------------------------------------------------------------|


G---------------------------------------------------------------------|
D---------------------------------------------------------------------|
A---2-2-2-2.....---0-0-0-0...--2-2-2-2.....---------------------------|
E---------------------------------------------------------------------|


G---------------------------------------------------------------------|
D-------------4-4-----------------------------------------------------|
A---2-2-2-2---------5-5-----------------------------------------------|
E---------------------------------------------------------------------|

: For those of you who aint heard this song I recommend it very much.
 Itos one of my favourites. It can be found on a 4 track EP along
 with Screamager, Auto Surgery and Accelerator


Here are some very short intro chords. I will transcribe the rest
of these songs later sometime.


@ Stop it youore killing me

e---------------------------------------------------------------------|
B---------------------------------------------------------------------|
G----------------------7----------------------------------------------|
D---2-2-2----5-5-5-----7----------------------------------------------|
A---2-2-2----5-5-5-----5----------------------------------------------|
E---0-0-0----3-3-3----------------------------------------------------|

@ Turn

e---------------------------------------------------------------------|
B-----7------7------7-------8-----8/10--------10----------------------|
G---4----4-4----4-4---4---5---5-5-------7--7------7-------------------|
D---------------------------------------------------------------------|
A---------------------------------------------------------------------|
E---------------------------------------------------------------------|


@ Neck Freak

e---------------------------------------------------------------------|
B---------------------------------------------------------------------|
G---------------------------------------------------------------------|
D---------------------------------------------------------------------|
A---------------------------------------------------------------------|
E--0-1---0-0--0-0-0-0-0-1---------------------------------------------|


@ Potato Junkie

e---------------------------------------------------------------------|
B---------------------------------------------------------------------|
G---------------------------------------------------------------------|
D---------------------7--9--------------------------------------------|
A--2---9----2--2--9---5--7--------------------------------------------|
E--0---7----0--0--7---------------------------------------------------|


Well thats it!

If you want to send me comments or complaints the address is:

johanw@krille.update.uu.se

NOTE! That is my brothers address, so you have to name the
mail something with oMartino.

Bye!
Comments