Therapy - Screamager Chords & Tabs

 

Screamager Chords & Tabs

Therapy Chords & Tabs

Version: 2 Type: Tab 0 ratings
1 star 2 stars 3 stars 4 stars 5 stars
comments

Screamager Tab

Therapy/Screamager.
Tabbed by David.
 
E----0------------- THIS IS THE BEGINIG OF THE SONG !
A----2----3----5---
D----2----5----7---
G---------5----7---
B------------------
E------------------
[ Tab from: http://www.guitartabs.cc/tabs/t/therapy/screamager_tab_ver_2.html ]
E------------------  THIS IS THE MIDDLE BIT !
A------------------
D------------------
G-----9----12----14
B------------------
E------------------
NON OF THIS SONG IS TIMED BUT IT'S NOT HARD 2 FIGURE OUT !

E-------------------------------------3---------------
A----------------------3------------------------------
D---2-----5--5--4--5------5--5--4--5-----5--5--4--5--------0--0--7--7--5--4
G--------------------------------------------------
B--------------------------------------------------
E-------------------------------------------------- 
:: Ultimate Guitar Archive :: 
http://www.ultimate-guitar.com
Comments