Therapy - Jam Jar Jail Chords & Tabs

 

Jam Jar Jail Chords & Tabs

Therapy Chords & Tabs

Version: 1 Type: Bass Tab 0 ratings
1 star 2 stars 3 stars 4 stars 5 stars
comments

Jam Jar Jail Bass Tab

Artist : Therapy?

Song : Jam Jar Jail

Album : Suicide Pact-You First

I love this bass line.i figured out myself after listening to it a few times. 
I really like therapy
If anyone has corrections or any other therapy bass tabs please send them 
my way at 
                   || HaTr3d@antisocial.com ||


                             THERAPY?
                           JAM JAR JAIL

Intro/Chorus

G----------------------------------
D----------------------------------
A----------3-3-3-3-3-3---------5---
E--5-5-5-3-------------1-1-1-1---5-
        
Verse
[ Tab from: http://www.guitartabs.cc/tabs/t/therapy/jam_jar_jail_btab.html ]
G-----------------------------|------------------------------------
D-----------------------------|------------------------------------
A----------3-------------5----|---------33333-------------5--------
E--5-xxx--3-xxxxx-1-xxxx---5--|-5-xxxx-3-----------1-xxxx---55555--

Pre-Chorus

G-----------------
D-----------------
A------------5----
E--5-3-1---3---5--

G---------------------
D---------------------
A---------------------
E--3333333--55555555--

U should get some meaning out of this its all there.
Like i said anyone with tabs from tha albums
Semi-Detatched
    Or
Suicide-Pact
              Please send them my way!!!
Thankx.......................

Comments