Therapy - Die Laughing Chords & Tabs

 

Die Laughing Chords & Tabs

Therapy Chords & Tabs

Version: 2 Type: Bass Tab 0 ratings
1 star 2 stars 3 stars 4 stars 5 stars
comments

Die Laughing Bass Tab

Artist: Therapy?
Song: Die Laughing
Transcribed by: Justin Servis 14/1/2000 (justin99@ignmail.com)

INTRO/VERSE
G|-----------7-----------------7---7/4-----------4----------------4--4/7--|
D|--5-5-5-5---5-5-5-5-5-5-5---5------2-2-2-2--2-2-2-2-2-2-2--2------------|
A|------------------------------------------------------------------------|
E|------------------------------------------------------------------------|

INTRO/CHORUS
G|-----------------------------------|
D|-----------------------------------|
A|--5-5-5-5-3-3-3-3------------------|
E|---------------------3----3-3-3-3--|
[ Tab from: http://www.guitartabs.cc/tabs/t/therapy/die_laughing_btab_ver_2.html ]
INTERLUDE
G|------------------------------------------------------------------------|
D|------------------------------------------------------0-0-1-1-2-2-4-4---|
A|--4-4-4-4-4-4-4-4-4-4-4-4-3-3-3-3-3-3-3-3-3-3---------------------------|
E|------------------------------------------------------------------------|

INTERLUDE 2
G|------------------------------------------------------------------------|
D|------------------------------------------------------------------------|
A|------------------------------------------------------------------------|
E|--3-3-3-3-3-3-3-3-3-3-3-3-3-3-3-3-3-3-3-3-0-0-0-0-0-0-0-0-0-0-0-0-0-0-0-|

Thereís a lot of slides in this, so put them where you want, 
this is just the basic structure.

notation

/ = slide - play first note and slide to the second 
but donít play the second note.
Comments