Theory Of A Deadman - The Last Song Chords & Tabs

 

The Last Song Chords & Tabs

Theory Of A Deadman Chords & Tabs

Version: 1 Type: Tab 0 ratings
1 star 2 stars 3 stars 4 stars 5 stars
comments

The Last Song Tab

   
artist: Theory Of A Deadman
song: The Last Song
tabber: Willy Prince wprince604@hotmail.com
tuning: drop B: down 1 and a half steps with drop d
(B,F#,B,E,G#,C#)
I've gotten lots of emails asking for this song. so here it is!

intro voilin(00:00)
|---------------|
|--11--12-------|
|-----------12--|
|---------------|
|---------------|
|---------------|

intro/verse(00:04) x3     figure.1
|-------------------------------------------------------------|
|----3------3------5------5------7------7--------10-------10--|
|------0-------------0--------------0----------------0--------|
|-------------------------------------------------------------|
|--3------3---3/5-------5----5/7------7-----7/10-------10-----|
|-------------------------------------------------------------|

4th time                  figure.1a
|-------------------------------------------------------------|
|-----3------3------3------3-------5------5------5-------5----|
|-------0------0------0------0-------0------0------0-------0--|
|-------------------------------------------------------------|
|--3------3-------3------3-----3/5------5------5------5-------|
|-------------------------------------------------------------|

violin underneath(00:05)
|--------------------------------------------------|
|--17----------17---------17-----------------------|
|----16--12------16--12-----16--12---17-17--19-19--|
|--------------------------------------------------|
|--------------------------------------------------|
|--------------------------------------------------|

guitar 2 underneath intro(00:13)
|--15----------------14----------------15-------|
|-----15----(4times)----15----(4times)----15----|
|--------12----------------12----------------12-|
|-----------------------------------------------|
|-----------------------------------------------|
|-----------------------------------------------|

heavy intro(00:21)
|-----------------------------------------------------------------|
|------------------------8--8--8----------------------------------|
|--h-h--h--h-h-----------7--7--7----------------------------------|
|--5-5--5--5-5--2-2--2---5--5--5-------2-2--2---5-4-4-4--5-4-4-4--|
|---------------2-2--2---5--5--5--0-0--2-2--2---5-4-4-4--5-4-4-4--|
|---------------2-2--2---5--5--5--0-0--2-2--2---5-4-4-4--5-4-4-4--|
                                  x x

|---------------------------------|
|-----------8-8----------------8--|
|-----------7-7--9-9-----------7--|
|---2-2--2--5-5--7-7---2-2--2--5--|
|---2-2--2--5-5--7-7---2-2--2--5--|
|---2-2--2--5-5--7-7---2-2--2--5--|
[ Tab from: http://www.guitartabs.cc/tabs/t/theory_of_a_deadman/the_last_song_tab.html ]
repeat intro/verse figure.1(x7)
repeat figure.1a(x1)

chorus(01:17)
|-----------------------------------------------------------|
|-----------------------------------------------------------|
|---------7-7----------------7-7----7-7-7---------7-7--9-9--|
|--2-2-2--5-5-------2-2-2----5-5----5-5-5--2-2-2--5-5--7-7--|
|--2-2-2--5-5--0-0--2-2-2--5-5-5--5-5-5-5--2-2-2--5-5--7-7--|
|--2-2-2--5-5--0-0--2-2-2--5------5--------2-2-2--5-5--7-7--|

                (01:34)
|------------|-----------------------|
|------------|-----------------------|
|---------7--|--12--14--16-16-14-12--|*you can barely hear 
|--2-2-2--5--|-----------------------|this little acoustic part
|--2-2-2--5--|-----------------------|at the end of the chorus,
|--2-2-2--5--|-----------------------|but I put it in anyway.

repeat figure.1(x5)
repeat figure.1a(x1)
chorus

bridge(02:21)(x3)
|----------------------------------------|
|----------------------------------------|
|----------------------------------------|
|--7-7-7-7-7-7-7---10-10-10-10-10-10-10--|
|--7-7-7-7-7-7-7---10-10-10-10-10-10-10--|
|--7-7-7-7-7-7-7---10-10-10-10-10-10-10--|

solo chords
|------------------------------------------------------------|
|------------------------------------------------------------|
|---------7-7-7--------------7-7-7---------7-7-7-------------|
|--2-2-2--5-5-5-------2-2-2--5-5-5--2-2-2--5-5-5--2-2-2--10--|
|--2-2-2--5-5-5--0-0--2-2-2--5-5-5--2-2-2--5-5-5--2-2-2--10--|
|--2-2-2--5-5-5--0-0--2-2-2--5-5-5--2-2-2--5-5-5--2-2-2--10--|

solo(01:35)
|--------------------------------------------------------------|
|--------------------------------------------------------------|
|------12-11------------12/11-----------------16------------v--|
|--2~---------9--12--14-------12-12-14--16-17----16-17--19-19--|
|--------------------------------------------------------------|
|--------------------------------------------------------------|

repeat figure.1
chorus
 
outro chords                     repeat this lead on 
|--------|-----|                |--15-14-----|last chord
|--------|-----|                |--------15--|
|--------|-----|                |------------|
|--2--5--|--2--|end on this note|------------|
|--2--5--|--2--|                |------------|
|--2--5--|--2--|                |------------|

The last time I put a Theory Of A Deadman tab on the net 
I got in trouble. I got a letter from some guy saying I
broke some copyright stuff, so ill say this, this isnt
my song, i didnt write it, i just tabbed it. I've gotten
lots of mail from people askin me to do this song so i did
it. All rights reserved to Theory Of a Deadman.
Written by: Tyler Connoly
music by: Theory Of A Deadman
I just tabbed it so enjoy it!
Comments