Theory Of A Deadman - Santa Monica Chords & Tabs

 

Santa Monica Chords & Tabs

Theory Of A Deadman Chords & Tabs

Version: 2 Type: Tab

Santa Monica Tab

   
-------------------------------------------------------------------------------
			     Santa Monica - Theory Of A Deadman
-------------------------------------------------------------------------------
Tabbed by: Mitch Paratits, AKA fox69
Email: fox69_deadly@hotmail.com

Tuning: Standard

   WEll. This is a pretty good song by a band i used to think were shit til
their new CD "Gasoline". Awsome chick song, so fella's if u wanna get the ladies, learn how
to play and sing this song. I've seen it work.




INTRO: Guitar 1
e|-----------10------------------10-------------------10------------------10-|
B|--12----10------------12----10-------------12----10------------12----10----|
G|-----12------------------12-------------------12------------------12-------|
D|---------------------------------------------------------------------------|
A|---------------------------------------------------------------------------|
E|---------------------------------------------------------------------------|

Guitar 2- You can find the strumming pattern that works the best for you, but 
          it's fairly simple. W/e is easiest, it's hard to screw it up.
     

e|------------0--------------------3--------------------2--------------3-----|
B|------------0--------------------3--------------------3--------------3-----|
G|------------0--------------------0--------------------2--------------0-----|
D|------------2--------------------0--------------------0--------------2-----|
A|------------2--------------------2--------------------0--------------3-----|
E|------------0--------------------3-----------------------------------------|


VERSE- Guitar 1 does what is below, while guitar 2 slowly strums the same 
       chords. Guitar 2 is optional, but sounds better if you have it in there.
       again, use the pattern thats best for you.
e|-----0-------0-------0-----------------------------------------------------|
B|-----0-------0-------0-----------------------------------------------------|
G|-----0-------4-------0--7-7-7-7-5-5-5-5------------------------------------| X4
D|-----2-----4-4-------5--7-7-7-7-5-5-5-5------------------------------------|
A|---2-2---2---2-----5-5--5-5-5-5-3-3-3-3------------------------------------|
E|-0---0-------0---3---3-----------------------------------------------------|
[ Tab from: http://www.guitartabs.cc/tabs/t/theory_of_a_deadman/santa_monica_tab_ver_2.html ]
CHORUS- It's very straight forward. Guitar 1 strums the chords while Guitar 2
        Does the little picking that i have below the chords.

   GTR. 1
e|--0---------------3-----------------2-----------------3--------------------|
B|--0---------------3-----------------3-----------------3--------------------|
G|--0---------------0-----------------2-----------------0--------------------| X2
D|--2---------------0-----------------0-----------------2--------------------|
A|--2---------------2-----------------0-----------------3--------------------|
E|--0---------------3--------------------------------------------------------|

   GTR. 2
e|---------------------------------------------------------------------------|
B|----3--------3--------3--------3--------3--------3--------3--------3-------|
G|--4---4-4--4---4-4--4---4-4--4---4-4--4---4-4--4---4-4--4---4-4--4---4-4---| X2
D|---------------------------------------------------------------------------|
A|---------------------------------------------------------------------------|
E|---------------------------------------------------------------------------|

BRIDGE- This is where a electric guitar with distortion comes in, but again, 
        if your alone playin for a chick, just play this part with the acoustic.
        

e|---------------------------------------------------------------------------|
B|---------------------------------------------------------------------------|
G|---------------------------------------------------------------------------| X4
D|-2--2--4--4--5--5--7-7--2--2--4--4--5--5--8--8-----------------------------|
A|-2--2--4--4--5--5--7-7--2--2--4--4--5--5--8--8-----------------------------|
E|-0--0--2--2--3--3--5-5--0--0--2--2--3--3--6--6-----------------------------|


  Song Order:
Intro  X1
Verse  X4
Chorus X2
Verse  X4
Chorus X2
Bridge X4
Chorus X3 ***** if you have guitar 2, then it doesn't come into the chorus 'til the last round.
Intro  X1


    Other than that, thats the whole song. I have a really sweet version on
guitar pro, but i can't submit it since i only have the demo version, and
i'm too cheap to buy the full version. anyways, great song, good band, learn this
song and go get some ladies.

Comments, corrections, anything, e-mail me.




| \  slide down
| h  hammer-on
| p  pull-off
| ~  vibrato
| +  harmonic
| x  Mute note
===============================================================================