Theory Of A Deadman - In The Middle Chords & Tabs

 

In The Middle Chords & Tabs

Theory Of A Deadman Chords & Tabs

Version: 1 Type: Bass Tab

In The Middle Bass Tab

-----------------------------------------------------------------------------
                       In the Middle - Theory of a Deadman
-----------------------------------------------------------------------------

Tabbed by - peavey-milenium
gnr_shawn@msn.com

Tuning - standard

No Bass in the intro, 1st verse or 1st chorus (the bass comes in when the lyrics
go, "whent he city crumbles")

2nd VERSE
G-----------------------------------------------|
D-----------------------------------------------|
A----0--2--3-----0--2--3-----0--2--3-----0--2--3|  X2
E-3-----------3-----------3-----------3---------|
[ Tab from: http://www.guitartabs.cc/tabs/t/theory_of_a_deadman/in_the_middle_btab.html ]
CHORUS
G-----------------------------------------------------------------------|
D-----------------------------------------------------------------------|
A-------0-000-2-222-3-333-------0-000-2-222-3-333------0-000-2-222-3-333|  X2
E-3-333-------------------3-333------------------3-333------------------|

BRIDGE
G-----------------------------------------------------------------------|
D-----------------------------------------------------------------------|
A-------0-000-2-222-3-333-------0-000-2-222-3-333------0-000-2-222-3-333|  X7
E-3-333-------------------3-333------------------3-333------------------|

OUTRO (everything cuts out and its just guitar and vocals
G---------|
D---------|
A---------|
E-3-------| let ring

i think its perfect, tell me if i can make any corrections!!