Theory Of A Deadman - Hello Lonely Chords & Tabs

 

Hello Lonely Chords & Tabs

Theory Of A Deadman Chords & Tabs

Version: 1 Type: Tab

Hello Lonely Tab

    Hey, theory of a deadman fans! Heres a cool acoustic song called "Hello Lonely" its 
good song, so give this tab a try.

Tabbed by: Brandon
Tuning: standard
[ Tab from: http://www.guitartabs.cc/tabs/t/theory_of_a_deadman/hello_lonely_tab.html ]
Intro                           this is the main part, goes until pre chorus
E/----000-0--0------------     -000-0--0--------------------|
B/----000-0--0------------     -000-0--0--------------------|
G/----444-4--4--44--------     -444-4--4--44-4-44-4--222----|
D/----222-2--2--44-------- 2x  -222-2--2--44-4-44-4--000----|
A/----444-4--0------------     -444-4--0-------------000----|
E/-----------4------------     --------4-------------222----|


Pre Chorus
E/--------------|
B/--------------|
G/-----4--------|
D/--22-4--------|
A/--00-0--------|
E/--------------|


Chorus - played on Electric
E/---------00000000000000000-----------|
B/---------00000002200022000-----------|
G/---------44444442222222222-----------| 2x then back to main part
D/--222222244444442222222222-----------|
A/--22222222222222---------------------|
E/-------------------------------------|


Sorry this is all I've been able to figure out so this will at least help you on your 
to getting the rest of the song figured out. See Ya!