Theory Of A Deadman - Any Other Way Chords & Tabs

 

Any Other Way Chords & Tabs

Theory Of A Deadman Chords & Tabs

Version: 1 Type: Tab 0 ratings
1 star 2 stars 3 stars 4 stars 5 stars
comments

Any Other Way Tab

   
artist: Theory Of A Deadman	
song: Any Other Way track 09
tabber: Willy Prince wprince604@hotmail.com
tuning: Drop B (B,F#,B,E,G#,C#)

intro(00:00)  fig.1
|---------------------------------------------------|--------------------|
|---------------------------------------------------|--------------------|
|---------------------------------------------------|--------------------|
|---------------------------------------------------|--------------------|
|------------9----------------------9---------------|-----------9--------|
|--0-0--9-10---10-9-0----0-0--9-10---10-9-0---6~~~--|-0-0--9-10---10-9-0-|

|----------------------|-------|
|----------------------|-------|
|----------------------|-------|
|----------------------|----3--|*means palm mute
|------------9---------|-0--3--|
|--0-0--9-10---10-9-0--|-0--3--|
            fig.2        *                     fig.2a
|-------------------------------|--------------------------------|
|-------------------------------|--------------------------------|
|-------------------------------|--------------------------------|
|----------------------0-0--0-6-|----------------------0-0--0-3--|
|--0-0-------9------0--0-0--0-6-|-0-0-------9-------0--0-0--0-3--|
|--0-0--9-10---10-9-0--0-0--0-6-|-0-0--9-10---10-9--0--0-0--0-3--|

guitar 2 underneath the end of fig.2a
    1st time         2nd time
|---------------|------------------|
|---------------|------------------|
|---------------|------------------|
|--9h10-9--10---|-------9h10-9--7--|
|---------------|------------------|
|---------------|------------------|

verse  fig.2 and 2a palm muted
[ Tab from: http://www.guitartabs.cc/tabs/t/theory_of_a_deadman/any_other_way_tab.html ]
after verse(pre-Chorus)
|--------------------------------|
|--------------------------------|
|--------------------------------|
|----------------------0-0--0-3--|play 4 times before chorus
|--0-0-------9------0--0-0--0-3--|
|--0-0--9-10---10-9-0--0-0--0-3--|

chorus "You can't help yourself...."
|--------------------------------------|
|--------------------------------------|
|--------------------------------------|
|--5-5-5-5-5-5-5-5----3-3-3-3-3-3-3-3--|
|--5-5-5-5-5-5-5-5----3-3-3-3-3-3-3-3--|
|--5-5-5-5-5-5-5-5----3-3-3-3-3-3-3-3--|

repeat fig. 2 and 2a twice

first bridge"Whoa you made a big mistake..."
|--------------------------------------|
|--3-3-3-3-3-3-3-3---------------------|
|--2-2-2-2-2-2-2-2---------------------| 
|--0-0-0-0-0-0-0-0---3-3-3-3-3-3-3-3---|
|--0-0-0-0-0-0-0-0---3-3-3-3-3-3-3-3---|
|--0-0-0-0-0-0-0-0---3-3-3-3-3-3-3-3---|

bridge 2
|-----------------------------|
|--------------------------3--|
|--------------------------2--|
|--5-3-4--5-3-4--5-3-4--0--0--|
|--5-3-4--5-3-4--5-3-4--0--0--|timing is tricky here
|--5-3-4--5-3-4--5-3-4--0--0--|

mellow part after bridge 2
|--------------------------------------------------------|
|--------------------------------------------------------|
|--------------------------------------------------------|
|--5---3---5---3---5-5-5-5-5-5-5-5-5--3-3-3-3-3-3-3-3-3--|
|--5---3---5---3---5-5-5-5-5-5-5-5-5--3-3-3-3-3-3-3-3-3--|
|--5---3---5---3---5-5-5-5-5-5-5-5-5--3-3-3-3-3-3-3-3-3--|
                   |-----------palm mute--------------|
acoustic slide underneath
|-----------------------|
|-----------------------|
|-----------------------|
|--/5--/5\3---/5--/5\3--|this is also played under the chorus
|--/5--/5\3---/5--/5\3--|
|-----------------------|

The last time I put a Theory Of A Deadman tab on the net 
I got in trouble. I got a letter from some guy saying I
broke some copyright stuff, so ill say this, this isnt
my song, i didnt write it, i just tabbed it.
All rights reserved to Theory Of a Deadman.
Written by: Tyler Connoly
music by: Theory Of A Deadman
Comments