Them - Here Comes The Night Solo 'n Riff Chords & Tabs

 

Here Comes The Night Solo 'n Riff Chords & Tabs

Them Chords & Tabs

Version: 1 Type: Tab 0 ratings
1 star 2 stars 3 stars 4 stars 5 stars
comments

Here Comes The Night Solo 'n Riff Tab

##################################################################################
# This file is the author's own work and represents their interpretation of the  #
# song. You may only use this file for private study, scholarship, or research.  #
##################################################################################


THEM - HERE COMES THE NIGHT (riffs and solo)

Intro/End of Chorus Riffs:
E -0--play x3---|--play once-----|-----------------
B -0------------|----------------|-----------------
G -1------------|----------------|-----------------
D -2---2--------|----2---1-1-1-4-|-----------------
A -2-2---2-4-0--|--2---2---------|-----------------
E -0------------|----------------|-----------------
[ Tab from: http://www.guitartabs.cc/tabs/t/them/here_comes_the_night_solo_n_riff_tab.html ]
End of Verse riffs:
E -|----------------|-----------------
B -|------5-----4---|-7-5-4-----------
G -|--4/6---6-4---4-|-------7-5---2---
D -|----------------|-----------------
A -|----------------|-----------------
E -|----------------|-----------------

Solo:

E ---------9-11-9-7---|---------------------------------
B -5-5-7-9----------9-|--9-9-10-7--9-10-7-9-7-5---------
G --------------------|---------------------------------
D --------------------|---------------------------------
A --------------------|---------------------------------
E --------------------|---------------------------------

 ~~end bit:
E ---14--12-11------------------
B -------------14-12-10-9-7-0---
G ------------------------------
D ------------------------------
A ------------------------------
E ------------------------------




-- another ace 60's tab in memory of Andrew Rogers

Enjoy, Lee Kear

Comments