Them - Baby Please Dont Go Chords & Tabs

 

Baby Please Dont Go Chords & Tabs

Them Chords & Tabs

Version: 3 Type: Tab 0 ratings
1 star 2 stars 3 stars 4 stars 5 stars
comments

Baby Please Dont Go Tab

   
-------------------------------------------------------------------------------
			     Baby Please Don't Go- Them
-------------------------------------------------------------------------------
Tabbed by: Robby
Email:robbycool@hotmail.com

Tuning:

e|---------------3---------------------------------------3-------------------|
B|--------3---5------5----3------3/5-----------------5------5----3-----------|
G|----4-----------------------4------------------4-------------------4--3----|
D|---------------------------------------------------------------------------|
A|---------------------------------------------------------------------------|
E|---------------------------------------------------------------------------|
[ Tab from: http://www.guitartabs.cc/tabs/t/them/baby_please_dont_go_tab_ver_3.html ]
e|----------3--------------------------------------------------------------------|
B|------5------5---3--------5---3-------------3----------------------------------|
G|---4-----------------4------------4---2/4----4\2--------2--2------------------|
D|------------------------------------------------------2----------2-0-----------|
A|---------------------------------------------------2------------------2-0------|
E|---------------------------------------------------------------------------3-0-|

e|---------------------------------------------------------------------------|
B|---------------------------------------------------------------------------|
G|---------------------------------------------------------------------------|
D|---------------------------------------------------------------------------|
A|----------5-------------------------5-------------------------5------------|
E|----5/7-------7----3---0------5/7-------7---3---0-------5/7-------7---3---0|

e|---------------------------------------------------------------------------|
B|---------------------------------------------------------------------------|
G|---------------------------------------------------------------------------|
D|---------------------------------------------------------------------------|
A|---------5-----------------------------------------------------------------|
E|---5/7--------7----3---0---------------------------------------------------|
                                  baby, please don't go... baby, please don't go...



| /  slide up
| \  slide down
| h  hammer-on
| p  pull-off
Comments