Theatre Of Tragedy - Liquid Man Chords & Tabs

 

Liquid Man Chords & Tabs

Theatre Of Tragedy Chords & Tabs

Version: 1 Type: Tab 0 ratings
1 star 2 stars 3 stars 4 stars 5 stars
comments

Liquid Man Tab

   
Band:  Theatre of Tragedy
Album: Assembly
Song:  Liquid Man

Copyright (c)  Nuclear Blast 2002
Version 1.0 - September 2002

Transcribed By: Gigantic Penis

.  - palm mute           /  - slide up to
\  - slide down to       ~  - vibrato
h  - hammer on           b  - Bend
p  - pull off            Suffixes for bend
t  - tap                 f  - full bend    h - half bend
ph - pinched harmonic    q  - quarter bend t - tap bend
*  - see comment         ^  - Hold bend    r release bend
x  - Stuccatto           ~  - vibrato bend
,  - slight palm mute    () - ghost note, sustained note
"  - tremolo note        <> - Trill

Tunning E B G D A E
[ Tab from: http://www.guitartabs.cc/tabs/t/theatre_of_tragedy/liquid_man_tab.html ]
|-------------------------------------------------------|
|-------------------------------------------------------|
|-------------------------------------------------bh3-^-|
|-------------------------------------------------bh3---|
|2-2-2-2-2-2-2-2-2-2-2-2-2-2-2-2-2-2-2-2-2-2-2-2--bh3---|
|1-1-1-1-1-1-1-1-1-1-1-1-1-1-1-1-1-1-1-1-1-1-1-1--------|

|-------------------------------------------------------------------|
|-------------------------------------------------------------------|
|-------------------------------------------------------------------|
|-------------------------------------------------------------------|
|4-4-4-4-4-4-4-4-4-4-4-4-4-4-4-4-4-4-4-4-4-4-4-4--------------------|
|2-2-2-2-2-2-2-2-2-2-2-2-2-2-2-2-2-2-2-2-2-2-2-2--------------------|

These riffs are repeated over and over for the chorus and Interlude....
Comments