Theatre Of Tragedy - Aoede Chords & Tabs

 

Aoede Chords & Tabs

Theatre Of Tragedy Chords & Tabs

Version: 1 Type: Tab 0 ratings
1 star 2 stars 3 stars 4 stars 5 stars
comments

Aoede Tab

Aoede



in-between part
e|--6-8--8--6-8--8--6-8--8--6-8--8--6-8--8--6-8--6--4-4--3-3--6-|
a|--6-8--8--6-8--8--6-8--8--6-8--8--6-8--8--6-8--6--4-4--3-3--6-|
d|--4-6--6--4-6--6--4-6--6--4-6--6--4-6--6--4-6--4--2-2--1-1--4-|
  pm------------------------------------------------------------
[ Tab from: http://www.guitartabs.cc/tabs/t/theatre_of_tragedy/aoede_tab.html ]
prechorus
e|--3--4--3------3--4--3-----3--4--3-----3-3--3-4-4-4-3-|
a|--3--4--3------3--4--3-----3--4--3-----3-3--3-4-4-4-3-|
d|--1--2--1------1--2--1-----1--2--1-----1-1--1-2-2-2-1-|
                                       pm---------------
e|-----------0-----------------------0------------------
gtr.2

chorus
d|------------------6666666688888888--|
a|--88888888888888884444444466666666--|
e|--6666666666666666------------------|

bridge
e|--6-6-6-|
a|--6-6-6-|
d|--4-4-4-|

 
 
 
Comments