Theatre Of Tragedy - Angelique Chords & Tabs

 

Angelique Chords & Tabs

Theatre Of Tragedy Chords & Tabs

Version: 1 Type: Bass Tab 0 ratings
1 star 2 stars 3 stars 4 stars 5 stars
comments

Angelique Bass Tab

   
Basstab to Angelique
By Theatre of Tragedy
Taken from the album Aegis

Transcribed by Roland de Graauw
Send comment, questions or requests to graauw@wxs.nl

Tune all strings down 1 step (D G C F)
Note that Eirik plays a 5-string, so it may occur that
I transcribe a part an octave higher...


Riff A
F   [----------------|---------------------]
C   [-----------2----|---------------------]
G   [----------------|----2--------0----2--]
D   [--2-------------|---------------------]


[ Tab from: http://www.guitartabs.cc/tabs/t/theatre_of_tragedy/angelique_btab.html ]
Riff B
F   [--------------------------------------------------------
C   [--------------------------------------------------------
G   [--5-5-5-5--5-5-5-5--5-5-5-5--5-5-5-5--2-2-2-2--2-2-2-2--
D   [--------------------------------------------------------


F   -------------------]
C   -------------------]
G   -2-2-2-2--2-2-2-2--]
D   -------------------]



Riff C
F   [--------------------------------------------------
C   [------------------2--2-2--2--2-2------------------
G   [----------------------------------2--2-2--2--2-2--
D   [--2--2-2--2--2-2----------------------------------


F   ------------------]
C   ------------------]
G   --0--0-0--2--2-2--]
D   ------------------]
Comments