Thea Gilmore - Bad Moon Rising Chords & Tabs

 

Bad Moon Rising Chords & Tabs

Thea Gilmore Chords & Tabs

Version: 1 Type: Tab 0 ratings
1 star 2 stars 3 stars 4 stars 5 stars
comments

Bad Moon Rising Tab

   
Taken from "Loft Music" Album. A greatly simplified version of this classic CCR song but 
great none the less!!!

Standard Tuning

D: xx0232
A: x02220
G: 320033

INTRO & VERSE
=============

  D            A   G   D
|--------2--------------------2----------2----------------|
|------3---3-----2---3------3---3------3---2--------------|
|----2------2-------------2------2---2------3-------------|
|--0--------------------0----------0----------------------|
|--------------0------------------------------------------|
|------------------3--------------------------------------|

CHORUS
======

  G                      D                      A           G
|--------3----------3-----------2----------2-----------0-----------3----|
|------3---3------3---3-------3---3------3---3-------2---2-------3---3--|
|----0------0---0------0----2------2---2------2----2------2----0------0-|
|-------------------------0----------0----------------------------------|
|------------------------------------------------0----------------------|
|--3----------3----------------------------------------------3----------|
[ Tab from: http://www.guitartabs.cc/tabs/t/thea_gilmore/bad_moon_rising_tab.html ]
  D
|--------2----------2---------------------------------------------------|
|------3---3------3---3-------------------------------------------------|
|----2------2---2------2------------------------------------------------|
|--0----------0---------------------------------------------------------|
|-----------------------------------------------------------------------|
|-----------------------------------------------------------------------|


LYRICS
======

I see the bad moon rising.
I see trouble on the way.
I see earthquakes and lightnin'.
I see bad times today.

Don't go around tonight
Well it's bound to take your life
There's a bad moon on the rise.

I hear hurricanes a blowing.
I know the end is coming soon.
I fear rivers over flowing.
I hear the voice of rage and ruin.

Don't go around tonight
Well it's bound to take your life
There's a bad moon on the rise.
All right!

Hope you got your things together.
Hope you are quite prepared to die.
Looks like we're in for nasty weather.
One eye is taken for an eye.

Don't go around tonight,
Well, it's bound to take your life,
There's a bad moon on the rise.

Don't go around tonight,
Well, it's bound to take your life,
There's a bad moon on the rise.
Comments