The Youth - Multong Bakla Multo Sa Paningin Chords & Tabs

 

Multong Bakla Multo Sa Paningin Chords & Tabs

The Youth Chords & Tabs

Version: 1 Type: Tab 0 ratings
1 star 2 stars 3 stars 4 stars 5 stars
comments

Multong Bakla Multo Sa Paningin Tab

   
#----------------------------------PLEASE NOTE---------------------------------#
#This file is the author's own work and represents their interpretation of the #
#song. You may only use this file for private study, scholarship, or research. #
#------------------------------------------------------------------------------##

                       MULTONG BAKLA (MULTO SA PANINGIN )
                            As recorded by The Youth
                  (From the 1995 Album ALBUM NA WALANG PAMAGAT)

Words by Dodong Cruz
Music by Dodong Cruz, Robert Javier

 Intro
  Alternative Pinoy Rock Q=140
 4/4
  Gtr I
  |----3----|
  q q q q q q     E E E E E E E E   E E E E E E E E
|-------------||----2---2---2---2-|---3---3---3---3-|
|-2-2-2-2-2-2-||o---3---3---3---3-|---3---3---3---3-|
|-2-2-2-2-2-2-||----2---2---2---2-|-----------------|
|-2-2-2-2-2-2-||------------------|-----------------|
|-------------||o-----------------|-----------------|
|-------------||------------------|-----------------|


                   1.                  2.
                                        |----3----|
  E E E E E E E E   E E E E E E E E     q q q q q q
|---2---2---2---2-|------------------||-------------||
|---3---3---3---3-|---2---2---2---2-o||-2-2-2-2-2-2-||
|---2---2---2---2-|---2---2---2---2--||-2-2-2-2-2-2-||
|-----------------|---2---2---2---2--||-2-2-2-2-2-2-||
|-----------------|-----------------o||-------------||
|-----------------|------------------||-------------||


   1st Verse
                                                         1.,2.,3.
    E E E E E E E E   E E E E E E E E   E E E E E E E E   E E E E E E E E  4x
||----2---2---2---2-|---3---3---3---3-|---2---2---2---2-|------------------||
||o---3---3---3---3-|---3---3---3---3-|---3---3---3---3-|---2---2---2---2-o||
||----2---2---2---2-|-----------------|---2---2---2---2-|---2---2---2---2--||
||------------------|-----------------|-----------------|---2---2---2---2--||
||o-----------------|-----------------|-----------------|-----------------o||
||------------------|-----------------|-----------------|------------------||


                            Breakdown
  4.
                            2/4
  |----3----|
  q q q q q q   W            H      +E  E Q
|-------------|----------||-------|----------|
|-2-2-2-2-2-2-|-2--------||o------|----------|
|-2-2-2-2-2-2-|-2--------||-------|----------|
|-2-2-2-2-2-2-|-2--------||--4----|-(4)-4-5--|
|-------------|----------||o-2----|-(2)-2-3--|
|-------------|----------||-------|----------|


                                1.
  +H       +Q   Q    +Q   +Q     H      +H
|--------|---------|-----------|------|---------||
|--------|---------|-----------|-2----|-(2)----o||
|--------|---------|-----------|-2----|-(2)-----||
|-(5)----|-(5)--4--|-(4)--(4)--|-2----|-(2)-----||
|-(3)----|-(3)--2--|-(2)--(2)--|------|--------o||
|--------|---------|-----------|------|---------||


  2.              Q=155
 4/4
  E E E E E E E E   W
|-----------------|------||
|-2-2-2-2-2-2-2-2-|-2----||
|-2-2-2-2-2-2-2-2-|-2----||
|-2-2-2-2-2-2-2-2-|-2----||
|-----------------|------||
|-----------------|------||


   Interlude
    Q=140
    E E E E E E E E   E E E E E E E E
||----2---2---2---2-|---3---3---3---3-|
||o---3---3---3---3-|---3---3---3---3-|
||----2---2---2---2-|-----------------|
||------------------|-----------------|
||o-----------------|-----------------|
||------------------|-----------------|


                   1.                  2.
                                        |----3----|
  E E E E E E E E   E E E E E E E E     q q q q q q
|---2---2---2---2-|------------------||-------------||
|---3---3---3---3-|---2---2---2---2-o||-2-2-2-2-2-2-||
|---2---2---2---2-|---2---2---2---2--||-2-2-2-2-2-2-||
|-----------------|---2---2---2---2--||-2-2-2-2-2-2-||
|-----------------|-----------------o||-------------||
|-----------------|------------------||-------------||


   2nd Verse
                                                         1.,2.,3.
    E E E E E E E E   E E E E E E E E   E E E E E E E E   E E E E E E E E  4x
||----2---2---2---2-|---3---3---3---3-|---2---2---2---2-|------------------||
||o---3---3---3---3-|---3---3---3---3-|---3---3---3---3-|---2---2---2---2-o||
||----2---2---2---2-|-----------------|---2---2---2---2-|---2---2---2---2--||
||------------------|-----------------|-----------------|---2---2---2---2--||
||o-----------------|-----------------|-----------------|-----------------o||
||------------------|-----------------|-----------------|------------------||


                            Breakdown
  4.
                            2/4
  |----3----|
  q q q q q q   W            H      +E  E Q
|-------------|----------||-------|----------|
|-2-2-2-2-2-2-|-2--------||o------|----------|
|-2-2-2-2-2-2-|-2--------||-------|----------|
|-2-2-2-2-2-2-|-2--------||--4----|-(4)-4-5--|
|-------------|----------||o-2----|-(2)-2-3--|
|-------------|----------||-------|----------|


                                1.
  +H       +Q   Q    +Q   +Q     H      +H
|--------|---------|-----------|------|---------||
|--------|---------|-----------|-2----|-(2)----o||
|--------|---------|-----------|-2----|-(2)-----||
|-(5)----|-(5)--4--|-(4)--(4)--|-2----|-(2)-----||
|-(3)----|-(3)--2--|-(2)--(2)--|------|--------o||
|--------|---------|-----------|------|---------||


  2.              Q=155
 4/4
  E E E E E E E E   W
|-----------------|------||
|-2-2-2-2-2-2-2-2-|-2----||
|-2-2-2-2-2-2-2-2-|-2----||
|-2-2-2-2-2-2-2-2-|-2----||
|-----------------|------||
|-----------------|------||


   Interlude
    Q=140
    E E E E E E E E   E E E E E E E E
||----2---2---2---2-|---3---3---3---3-|
||o---3---3---3---3-|---3---3---3---3-|
||----2---2---2---2-|-----------------|
||------------------|-----------------|
||o-----------------|-----------------|
||------------------|-----------------|

[ Tab from: http://www.guitartabs.cc/tabs/t/the_youth/multong_bakla_multo_sa_paningin_tab.html ]
                   1.                  2.
                                        |----3----|
  E E E E E E E E   E E E E E E E E     q q q q q q
|---2---2---2---2-|------------------||-------------||
|---3---3---3---3-|---2---2---2---2-o||-2-2-2-2-2-2-||
|---2---2---2---2-|---2---2---2---2--||-2-2-2-2-2-2-||
|-----------------|---2---2---2---2--||-2-2-2-2-2-2-||
|-----------------|-----------------o||-------------||
|-----------------|------------------||-------------||


   3rd Verse
                                                         1.,2.,3.
    E E E E E E E E   E E E E E E E E   E E E E E E E E   E E E E E E E E  4x
||----2---2---2---2-|---3---3---3---3-|---2---2---2---2-|------------------||
||o---3---3---3---3-|---3---3---3---3-|---3---3---3---3-|---2---2---2---2-o||
||----2---2---2---2-|-----------------|---2---2---2---2-|---2---2---2---2--||
||------------------|-----------------|-----------------|---2---2---2---2--||
||o-----------------|-----------------|-----------------|-----------------o||
||------------------|-----------------|-----------------|------------------||


                            Breakdown
  4.
                            2/4
  |----3----|
  q q q q q q   W            H      +E  E Q
|-------------|----------||-------|----------|
|-2-2-2-2-2-2-|-2--------||o------|----------|
|-2-2-2-2-2-2-|-2--------||-------|----------|
|-2-2-2-2-2-2-|-2--------||--4----|-(4)-4-5--|
|-------------|----------||o-2----|-(2)-2-3--|
|-------------|----------||-------|----------|


                                1.
  +H       +Q   Q    +Q   +Q     H      +H
|--------|---------|-----------|------|---------||
|--------|---------|-----------|-2----|-(2)----o||
|--------|---------|-----------|-2----|-(2)-----||
|-(5)----|-(5)--4--|-(4)--(4)--|-2----|-(2)-----||
|-(3)----|-(3)--2--|-(2)--(2)--|------|--------o||
|--------|---------|-----------|------|---------||


  2.              Q=155
 4/4
  E E E E E E E E   W
|-----------------|------||
|-2-2-2-2-2-2-2-2-|-2----||
|-2-2-2-2-2-2-2-2-|-2----||
|-2-2-2-2-2-2-2-2-|-2----||
|-----------------|------||
|-----------------|------||


 Guitar Break
  Q=145
               Gtr II
               <
  Wx7          E E E E E E E E
|------------|-----------------||
|------------|-----------------||
|------------|-----------------||
|------------|-----------------||
|------------|-7-7-7-7-7-7-7-7-||
|------------|-5-5-5-5-5-5-5-5-||


   Bridge
    E E E E E E E E     E  E  E  E  E  E  E  E
||-------------------|--------------------------|
||o------------------|--------------------------|
||-------------------|--------------------------|
||--7-7-7-7-7-7-7-7/-|-12-12-12-12-12-12-12-12\-|
||o-5-5-5-5-5-5-5-5/-|-10-10-10-10-10-10-10-10\-|
||-------------------|--------------------------|


  E E E E E E E E   E E E E E E E E
|-----------------|------------------||
|-----------------|-----------------o||
|-----------------|------------------||
|-7-7-7-7-7-7-7-7-|------------------||
|-5-5-5-5-5-5-5-5-|-7-7-7-7-7-7-7-7-o||
|-----------------|-5-5-5-5-5-5-5-5--||


 Coda
  Faster Q=155
  Q  Q  Q  Q    Q  Q  Q  Q    Q  Q  Q  Q    Q  Q  Q  Q
|-------------|-------------|-------------|--------------|
|-------------|-------------|-------------|--------------|
|-------------|-------------|-------------|--------------|
|-7--7--7--7--|-------------|-7--7--7--7--|-9--9--9--9---|
|-5--5--5--5--|-5--5--5--5--|-5--5--5--5--|-7--7--7--7---|
|-------------|-3--3--3--3--|-------------|--------------|


   Q   Q  Q  Q    Q  Q  Q  Q    Q  Q  Q  Q    Q  Q  Q  Q
|---------------|-------------|-------------|--------------|
|---------------|-------------|-------------|--------------|
|---------------|-------------|-------------|--------------|
|-12\--7--7--7--|-------------|-7--7--7--7--|--------------|
|-10\--5--5--5--|-5--5--5--5--|-5--5--5--5--|-7--7--7--7---|
|---------------|-3--3--3--3--|-------------|-5--5--5--5---|


    Q  Q  Q  Q    Q  Q  Q  Q    Q  Q  Q  Q    Q  Q  Q  Q
||--------------|-------------|-------------|--------------||
||o-------------|-------------|-------------|-------------o||
||--------------|-------------|-------------|--------------||
||--7--7--7--7--|-------------|-7--7--7--7--|--------------||
||o-5--5--5--5--|-5--5--5--5--|-5--5--5--5--|-7--7--7--7--o||
||--------------|-3--3--3--3--|-------------|-5--5--5--5---||


  S S S S S S S S S S S S S S S S   S S S S S S S S S S S S S S S S
|---------------------------------|---------------------------------|
|---------------------------------|---------------------------------|
|---------------------------------|---------------------------------|
|-7-7-7-7-7-7-7-7-7-7-7-7-7-7-7-7-|-7-7-7-7-7-7-7-7-7-7-7-7-7-7-7-7-|
|-5-5-5-5-5-5-5-5-5-5-5-5-5-5-5-5-|-5-5-5-5-5-5-5-5-5-5-5-5-5-5-5-5-|
|---------------------------------|---------------------------------|


  S S S S S S S S S S S S S S S S   H    +H
|---------------------------------|-------------|
|---------------------------------|-------------|
|---------------------------------|-------------|
|-7-7-7-7-7-7-7-7-7-7-7-7-7-7-7-7-|-7----(7)----|
|-5-5-5-5-5-5-5-5-5-5-5-5-5-5-5-5-|-5----(5)----|
|---------------------------------|-------------|


  H    +H
|--------------*|
|--------------*|
|--------------*|
|-7----(7)\----*|
|-5----(5)\----*|
|--------------*|


Duration Legend
---------------
W - whole; H - half; Q - quarter; E - 8th; S - 16th; T - 32nd; X - 64th; a - acciaccatura
+ - note tied to previous; . - note dotted; .. - note double dotted
Uncapitalized letters represent notes that are staccato (1/2 duration)
Irregular groupings are notated above the duration line
Duration letters will always appear directly above the note/fret number it represents the
duration for.  Duration letters with no fret number below them represent rests.  Multi-
bar rests are notated in the form Wxn, where n is the number of bars to rest for.  Low
melody durations appear below the staff

Tablature Legend
----------------
 h   - hammer-on
 p   - pull-off
 b   - bend
 pb  - pre-bend
 r   - bend release (if no number after the r, then release immediately)
 /\  - slide into or out of (from/to "nowhere")
 s   - legato slide
 S   - shift slide
  - natural harmonic
[n]  - artificial harmonic
n(n) - tapped harmonic
 ~   - vibrato
 tr  - trill
 T   - tap
 TP  - trem. picking
 PM  - palm muting
\n/  - tremolo bar dip; n = amount to dip
 \n  - tremolo bar down
 n/  - tremolo bar up
/n\  - tremolo bar inverted dip
 =   - hold bend; also acts as connecting device for hammers/pulls
   - volume swell (louder/softer)
 x   - on rhythm slash represents muted slash
 o   - on rhythm slash represents single note slash

Misc Legend
-----------
 |  - bar
||  - double bar
||o - repeat start
o|| - repeat end
*|  - double bar (ending)
 :  - bar (freetime)
 $  - Segno
 &  - Coda
Tempo markers -  = BPM(8/16=s8/s16), where s8 = swing 8ths, s16 = swing 16ths


***************************************************************************************
* Generated using Power Tab Editor by Brad Larsen - http://powertab.guitarnetwork.org *
***************************************************************************************
Comments