The Xx - Fantasy Chords & Tabs

 

Fantasy Chords & Tabs

The Xx Chords & Tabs

Version: 1 Type: Tab

Fantasy Tab

The song starts with what I think is a C in the background.

At 0.47
E--------------------------------------------|
B--------11-------------8--------------------|
G--------------------------------------------|
D---(Played quietly, I don't use my pick-----|
A----for these background notes)-------------|
E--------------------------------------------|

Before the guitar enters there is a bass in the background
and I think it's fading from C to G to F# (14th) and is continued
until the end.
[ Tab from: http://www.guitartabs.cc/tabs/t/the_xx/fantasy_tab.html ]
At 1.38
E-----------------------------------------------------------------------------|
B--11-------(/)11---8---------13\--8------8-/11-11----(/)11---8-----8-/11-11--|
G-----------------------------------------------------------------------------|
D-----------------------------------------------------------------------------|
A-----------------------------------------------------------------------------|
E-----------------------------------------------------------------------------|

E--------------------------------------------------------|
B--11--/13---11--/13---8--------11--/13---11--/13---8----|
G--------------------------------------------------------|
D--------------------------------------------------------|
A--------------------------------------------------------|
E--------------------------------------------------------|

E---------------------------------------------------------------|
B--11--/13---11--/13--/15--13------11--/13---11--/13--/15-------|
G---------------------------------------------------------------|
D---------------------------------------------------------------|
A---------------------------------------------------------------|
E---------------------------------------------------------------|



Things in brackets are not necessary but an option.

This is my first tab in it's really simple, XX style.
Hope you like the tab and XX as much as I do.