The Xx - Crystalised Chords & Tabs

 

The Xx Chords & Tabs

Version: 1 Type: Tab 0 ratings
1 star 2 stars 3 stars 4 stars 5 stars
comments

Crystalised Tab

The XX - Crystalised

Before you start: This tab is a bit different from most tabs; I included the time count, 
put it inbetween two lines.
I also included a tab for a second guitar in the same way.


Also note that all numbers are under 10, so ---2210--2-2-10----------| is actually
------2-2-1-0----2--2--1-0---- and NOT ------2-2-10-----2--2--10-----|

   1st guitar
e:-----22102-2-2-0---------------------22102-2-2-0------------------|
B:--0-------------2/0--03333--------0-------------2/0--03333--------|
G:------------------------------------------------------------------|
D:------------------------------------------------------------------|
A:------------------------------------------------------------------|
E:------------------------------------------------------------------|
    1-:-2-:-3-:-4-:-5-:-6-:-7-:-8-:-1-:-2-:-3-:-4-:-5-:-6-:-7-:-8-:-|
e:------------------------------------------------------------------|
B:------------------------------------------------------------------|
G:--44447776666676744449999/6666676744447776666676744449999/6-------|
D:------------------------------------------------------------------|
A:------------------------------------------------------------------|
E:------------------------------------------------------------------|

   2st guitar
e:------------------------------------------------------------------|
B:--0--033-2-2-23-3-----------------0--033-2-2-23-3-----------------|
G:------------------------------------------------------------------|
D:------------------2--222/5-5---55/9---------------2--222/5-5------|
A:------------------------------------------------------------------|
E:------------------------------------------------------------------|
    1-:-2-:-3-:-4-:-5-:-6-:-7-:-8-:-1-:-2-:-3-:-4-:-5-:-6-:-7-:-8-:-|
e:------------------------------------------------------------------|
B:------------------------------------------------------------------|
G:------------------------------------------------------------------|
D:--2222222222222222----------------2222222222222222----------------|
A:-------------------2-2-2-0-0-0---------------------2-2-2-0-0-0----|
E:------------------------------------------------------------------|


--- Vocals Only Part Starts ---
(Vocal + base line/second guitar:)


2nd guitar/base line
e:------------------------------------------------------------------|
B:------------------------------------------------------------------|
G:------------------------------------------------------------------|
D:------------------------------------------------------------------|
A:-------------------2-2-2-0-0-0---------------------2-2-2/4-4-45-5-|
E:--0000000-000000------------------0000000-0000000-----------------|
    1-:-2-:-3-:-4-:-5-:-6-:-7-:-8-:-1-:-2-:-3-:-4-:-5-:-6-:-7-:-8-:-|
e:------------------------------------------------------------------|
B:------------------------------------------------------------------|
G:------------------------------------------------------------------|
D:------------------------------------------------------------------|
A:-------------------2-2-2-0-0-0---------------------2-2-2/4-4-45-5-|
E:--00000000-0-00000----------------00000000-0-00000----------------|
    1-:-2-:-3-:-4-:-5-:-6-:-7-:-8-:-1-:-2-:-3-:-4-:-5-:-6-:-7-:-8-:-|
e:------------------------------------------------------------------|
B:------------------------------------------------------------------|
G:------------------------------------------------------------------|
D:------------------------------------------------------------------|
A:-------------------2-2-2-0-0-0-000-----------------2-2-2/4-4-45-5-|
E:--00000000000000------------------0000000000000000----------------|


--- Vocals Only Part Ends ---

   1st guitar
e:------------------------------------------------------------------|
B:---30-30-30-30-30-3-3-3332-2-2-222-30-30-30-30-30--3-3-333/2------|
G:--1--1--1--1--1--1----------------1--1--1--1--1--1----------------|
D:------------------------------------------------------------------|
A:------------------------------------------------------------------|
E:------------------------------------------------------------------|
    1-:-2-:-3-:-4-:-5-:-6-:-7-:-8-:-1-:-2-:-3-:-4-:-5-:-6-:-7-:-8-:-|
e:------------------------------------------------------------------|
B:------------------------------------------------------------------|
G:--44447776666666644449999/6666676744447776666676744449999/66666767
D:------------------------------------------------------------------|
A:------------------------------------------------------------------|
E:------------------------------------------------------------------|
[ Tab from: http://www.guitartabs.cc/tabs/t/the_xx/crystalised_tab.html ]
   2nd guitar
e:------------------------------------------------------------------|
B:------------------------------------------------------------------|
G:------------------------------------------------------------------|
D:--2222222222222222----------------2222222222222222----------------|
A:-------------------2-2-2-0-0-0-000-----------------2-2-2-0-0-0----|
E:------------------------------------------------------------------|
    1-:-2-:-3-:-4-:-5-:-6-:-7-:-8-:-1-:-2-:-3-:-4-:-5-:-6-:-7-:-8-:-|
e:------------------------------------------------------------------|
B:------------------------------------------------------------------|
G:------------------------------------------------------------------|
D:------------------------------------------------------------------|
A:---------------------------------------------------2-2-2/4-4-45-5-|
E:----------------------------------0000000000000000----------------|

1st guitar
e:------------------------------------------------------------------|
B:------------------------------------------------------------------|
G:--44447776666676744449999/6666676744447776666676744449999/6-------|
D:------------------------------------------------------------------|
A:------------------------------------------------------------------|
E:------------------------------------------------------------------|
    1-:-2-:-3-:-4-:-5-:-6-:-7-:-8-:-1-:-2-:-3-:-4-:-5-:-6-:-7-:-8-:-|
e:------------------------------------------------------------------|
B:---30-30-30-30-30-3-3-3332-2-2-222-30-30-30-30-30--3-3-333/2--222-|
G:--1--1--1--1--1--1----------------1--1--1--1--1--1----------------|
D:------------------------------------------------------------------|
A:------------------------------------------------------------------|
E:------------------------------------------------------------------|

2nd guitar
e:------------------------------------------------------------------|
B:------------------------------------------------------------------|
G:------------------------------------------------------------------|
D:------------------------------------------------------------------|
A:-------------------2-2-2-0-0-0-000-----------------2-2-2-0-0-0----|
E:--0000000000000000----------------0000000000000000----------------|
    1-:-2-:-3-:-4-:-5-:-6-:-7-:-8-:-1-:-2-:-3-:-4-:-5-:-6-:-7-:-8-:-|
e:------------------------------------------------------------------|
B:------------------------------------------------------------------|
G:------------------------------------------------------------------|
D:------------------------------------------------------------------|
A:-------------------2-2-2-0-0-0---------------------2-2-2/4-4-45-5-|
E:--0000000000000000----------------0000000000000000----------------|


1st guitar
e:------------------------------------------------------------------|
B:---30-30-30-30-30-3-3-3332-2-2-222-30-30-30-30-30--3-3-333/2--222-|
G:--1--1--1--1--1--1----------------1--1--1--1--1--1----------------|
D:------------------------------------------------------------------|
A:------------------------------------------------------------------|
E:------------------------------------------------------------------|
    1-:-2-:-3-:-4-:-5-:-6-:-7-:-8-:-1-:-2-:-3-:-4-:-5-:-6-:-7-:-8-:-|


2nd guitar
e:------------------------------------------------------------------|
B:------------------------------------------------------------------|
G:------------------------------------------------------------------|
D:------------------------------------------------------------------|
A:-------------------2-2-2-0-0-0---------------------2-2-2-0--------|
E:--0000000000000000----------------0000000000000000----------------|
    1-:-2-:-3-:-4-:-5-:-6-:-7-:-8-:-1-:-2-:-3-:-4-:-5-:-6-:-7-:-8-:-|


--- Small Vocal Part ---


1st guitar
e:-------------------------------------------------------------------|
B:-------------------------------------------------------------------|
G:-------------------4-4-4-2-2-2---------------------4---4/2----2//4-|
D:--2222222222222222----------------2222222222222222-----------------|
A:-------------------------------------------------------------------|
E:-------------------------------------------------------------------|
    1-:-2-:-3-:-4-:-5-:-6-:-7-:-8-:-1-:-2-:-3-:-4-:-5-:-6-:-7-:-8-:--|

                                            rit.
2nd guitar
e:-------------------------------------------------------------------|
B:-------------------------------------------------------------------|
G:-------------------------------------------------------------------|
D:-------------------------------------------------------------------|
A:-------------------2-2-2-0-0-0---------------------2---2/0----0//2-|
E:--0000000000000000----------------0000000000000000-----------------|
    1-:-2-:-3-:-4-:-5-:-6-:-7-:-8-:-1-:-2-:-3-:-4-:-5-:-6-:-7-:-8-:--|
Comments