The Wreckers - Stand Still Look Pretty Chords & Tabs

 

Stand Still Look Pretty Chords & Tabs

The Wreckers Chords & Tabs

Version: 1 Type: Tab

Stand Still Look Pretty Tab

Transcribed from a live version.

verse:

E----------------------------------------------------------------------------------------------------|
B-------------0------------------------0-----------------------0----------------------------0--------|
G------------------0-----------------------0-------------------------0----------------------------0--|
D--------2------------------------2-----------------------2--------------------------2---------------|
A----------------------------3---------------------------------------------------3-------------------|
E---0-----------------------------------------------0------------------------------------------------|

I wanna paint my face....

E------------------------------------------------------------------------------------------------|
B-------------0-----------------------0-----------------------0-------------------------0--------|
G------------------0----------------------0------------------------0--------------------------0--|
D-------0-----------------------2----------------------0--------------------------2--------------|
A--------------------------3--------------------------------------------------3------------------|
E--3------------------------------------------------3--------------------------------------------|

And pretend that I am someone else....


E----------------------------------------------------------------------------------------------------|
B-------------0------------------------0-----------------------0----------------------------0--------|
G------------------0-----------------------0-------------------------0----------------------------0--|
D--------2------------------------2-----------------------2--------------------------2---------------|
A----------------------------3---------------------------------------------------3-------------------|
E---0-----------------------------------------------0------------------------------------------------|

Sometimes I get so fed up


E------------------------------------------------------------------------------------------------|
B-------------0-----------------------0-----------------------0-------------------------0--------|
G------------------0----------------------0------------------------0--------------------------0--|
D-------0-----------------------2----------------------0--------------------------2--------------|
A--------------------------3--------------------------------------------------3------------------|
E--3------------------------------------------------3--------------------------------------------|

I don't even wanna look at myself
[ Tab from: http://www.guitartabs.cc/tabs/t/the_wreckers/stand_still_look_pretty_tab.html ]
Bridge:
E----------------0----------------------0-------------------------0-------------------------0------------------------|
B--------------------2------------------------2--------------------------2------------------------2------------------|
G----------2-----------------------2------------------------2------------------------2------------------        x 3--|
D-----0--------------------------------------------------------------------------------------------------------------|
A--------------------------------------------------------------------------------------------------------------------|
E----------------------------2------------------------3-------------------------3------------------------------------|

But people have problems that are worse than mine...
I don't want you to think I'm complaining all the time
And I hate the way you look at me, I have to say

E-------------------------------------------------------------------------------------|
B----------------0---------------------0----------------------0-----------------------|
G---------------------0--------------------0-----------------------0------------------|
D---------2---------------------2-----------------------2-----------------------------|
A---------------------------3------------------------------------------------3-----2--|
E----0---------------------------------------------0----------------------------------|

I wish I could start over

Chorus:

E---------------------------------------------------------------3------------------------2---------|
B-----------------1---------------------1--------------------------3--------------------------0/1--|
G----------------------2---------------------0-------------------------------------2---------------|    x3
D------------2---------------------2---------------------0-------------------0---------------------|
A-----0----------------------3---------------------------------------------------------------------|
E----------------------------------------------------3---------------------------------------------|

I am slowly falling apart,
Wish you take a walk in my shoes for a start
You might think it's easy being me


                                                    (strum)
E-------------------------------------------------------------------|
B-------------1-----------------------1--------------1--------------|
G------------------2-----------------------2---------0--------------|
D--------2---------------------2---------------------2--------------|
A---0--------------------0---------------------------3--------------|
E-------------------------------------------------------------------|

You just stand still, look pretty