The Weather Girls - Its Raining Men Chords & Tabs

 

Its Raining Men Chords & Tabs

The Weather Girls Chords & Tabs

Version: 1 Type: Bass Tab 0 ratings
1 star 2 stars 3 stars 4 stars 5 stars
comments

Its Raining Men Bass Tab

   
----------------------------------------------------------------------------
			     IT'S RAINING MEN - Weather Girls
----------------------------------------------------------------------------

Tabbed By : Ben Garskof
e-mail: bgarskof@lhup.edu

Tuning: E A D G

Song:  It's Raining Men
Artist:  The Weather Girls
Tabbed by:  Ben Garskof

Bass Tablature - Standard Tuning

INTRO

     F		[softly]		 Eb
G-----------------|-----------------|-----------------|----------------|
D-----------------|-----------------|-----------------|----------------|
A-8-8-8-8-8-8-8-8-|-8-8-8-8-8-8-8-8-|-6-6-6-6-6-6-6-6-|-6-6-6-6-6-6-6-6|
E-----------------|-----------------|-----------------|----------------|

   C#	[hard hit and hold]	      C				 G
G----------------------------------|--------------------------------|
D----------------------------------|-------------------------5------|
A-(4)------------------------------|-(3)----------------------------|
E----------------------------------|-----------------------------3--|

   F   				      F  "Get Ready...."
G----------------------------------|---------------------------------|
D----------------------------------|---------------------------------|
A----------------------------------|---------------------------------|
E-(1)------------------------------|-(1)-----------------------------|


FIRST VERSE

  F	"Humidity is rising..."	    
G-----------------|-----------------|-----------------|----------------|
D-----------------|-----------------|-----------------|----------------|
A-----------------|-----------------|-----------------|----------------|
E-1-1-1-1-1-1-1-1-|-1-1-1-1-1-1-1-1-|-1-1-1-1-1-1-1-1-|-1-1-1-1-1-1-1-1|


  F  "According to all sources...."   C
G-----------------|-----------------|-----------------|----------------|
D-----------------|-----------------|-----------------|----------------|
A-----------------|-----------------|-3-3-3-3-3-3-3-3-|-3-3-3-3-3-3-3-3|
E-1-1-1-1-1-1-1-1-|-1-1-1-1-1-1-1-1-|-----------------|----------------|


  F					        Bb
G-----------------|-----------------|-----------------|---------------|
D-----------------|-----------------|-----------------|---------------|
A-----------------|-----------------|-1-1-1-1-1-1-1-1-|1-1-1-1-1-1-1-1|
E-1-1-1-1-1-1-1-1-|-1-1-1-1-1-1-1-1-|-----------------|---------------|


  C  "For the first time...."
G-----------------|----------------|-----------------|---------------|
D-----------------|----------------|-----------------|---------------|
A-3-3-3-3-3-3-3-3-|3-3-3-3-3-3-3-3-|-3-3-3-3-3-3-3-3-|3-3-3-3-3-3-3-3|
E-----------------|----------------|-----------------|---------------|

[ Tab from: http://www.guitartabs.cc/tabs/t/the_weather_girls/its_raining_men_btab.html ]
CHORUS
  "It's raining men..."
  C#  	              Eb                C                 F
G-------------------|-----------------|-----------------|----------------|
D-------------------|-----------------|-----------------|-3-3-3-3-3-3-3-3|
A-16->4-4-4-4-4-4-4-|-6-6-6-6-6-6-6-6-|-3-3-3-3-3-3-3-3-|----------------|
E-------------------|-----------------|-----------------|----------------|


  C#      C Bb		      C
G---------------------------|----------------------------------|
D---------------------------|----------------------------------|
A-4-4-4-4-3-1-1-1-1-1-1-1-1-|-3-3-3-3-3-3-3-3-3-3-3-3-3-3-3-3-3|
E---------------------------|----------------------------------|



  "It's raining men..."
  C#                  Eb                C                 F
G-------------------|-----------------|-----------------|----------------|
D-------------------|-----------------|-----------------|-3-3-3-3-3-3-3-3|
A-16->4-4-4-4-4-4-4-|-6-6-6-6-6-6-6-6-|-3-3-3-3-3-3-3-3-|----------------|
E-------------------|-----------------|-----------------|----------------|


  C#      C       Bb                C        
G---------------------------------|----------------|-----------------|
D---------------------------------|----------------|-----------------|
A-4-4-4-4-3-3-3-3-1-1-1-1-1-1-1-1-|-3-3-3-3-3-3-3-3|-3-3-3-3-3-3-3-3-|
E---------------------------------|----------------|-----------------|


SECOND VERSE

    C#                Eb	        C 		  F
G|.-----------------|-----------------|-----------------|----------------.|
D|.----------- -----|-----------------|-----------------|-3-3-3-3-3-3-3-3.|
A|.-4-4-4-4-4-4-4-4-|-6-6-6-6-6-6-6-6-|-3-3-3-3-3-3-3-3-|----------------.|
E|.-----------------|-----------------|-----------------|----------------.|
                                     [X3]


G---------------------------|--------------------------------------------|
D---------------------------|--------------------------------------------|
A-1-1-1-3-3-3-4-4-4-5-5-5-5-|--------------------------------------------|
E---------------------------|-1-1-1-3-3-3-4-4-4-6-6-6-7-8-8-8-8-8-8-8-8-8|

  "It's raining men...."
G---------------------|.----------------.|
D---------------------|.----------------.|
A---------------------|.----------------.| [X14]
E----rest---------13>-|.-1-1-1-1-1-1-1-1.|

  C "The street's the place to go..." F
G-----------------|-----------------|-----------------|----------------|
D-----------------|-----------------|-----------------|----------------|
A-3-3-3-3-3-3-3-3-|-3-3-3-3-3-3-3-3-|-----------------|----------------|
E-----------------|-----------------|-1-1-1-1-1-1-1-1-|-1-1-1-1-1-1-1-1|

  Bb
G-----------------|----------------|
D-----------------|----------------|
A-1-1-1-1-1-1-1-1-|-1-1-1-1-1-1-1-1|
E-----------------|----------------|

  C
G|.---------------.|
D|.---------------.|
A|.3-3-3-3-3-3-3-3.| [X5]
E|.---------------.|

Next, repeat chorus (C#, Eb, C, F) as the song fades out and that's it!  You can also play
octaves or otherwise improvise throughout the song to give it more of a disco sound.
i.E.:

G|--------------------------------|
D|---3---3---3---3---3---3---3---3|
A|--------------------------------| 
E|-1---1---1---1---1---1---1---1--|

Have fun with it.....
Comments