The Wanted - Glad You Came Chords & Tabs

 

Glad You Came Chords & Tabs

The Wanted Chords & Tabs

Version: 1 Type: Bass Tab 0 ratings
1 star 2 stars 3 stars 4 stars 5 stars
comments

Glad You Came Bass Tab

   
Glad You Came
By: The Wanted
Bass Cover created by: Jeff Quinn a.k.a iamjquinn86
Original Video @ http://www.youtube.com/watch?v=jA1j65FB-Zg

If you break this song down into 5 basic parts they read out like this:

     Intro(I)                   Normal(N)                     Groovy(G)
G|---------------|      G|---------------------|        G|------------------|
D|---------------|      D|-------5-3-----------|        D|-------5-3---35-5-| 
A|-----5-------1-|      A|-----------5-5-5-3---|        A|-----------5---3--|
E|-3-------3-----|      E|-3-3-3-------------6-|        E|-3-3-3------------|

     Stop(S)                    Ending(E)
G|-------------|        G|----------------------|
D|-------5-3---|        D|----------------------|
A|-------------|        A|----------------------| 
E|-3-3-3-----1-|        E|-3-3-3--36--1-1-1-1-3-|


Played out it would like:

   2   3    3     2    2      7      2      7 
I NNG NNNG NNNGS NNGS NNG NNNNNNNGS NNGS NNNNNNN EII 3(On E string)



Fully tabbed out
G|---------------|
D|---------------|
A|-----5-------1-|
E|-3-------3-----|

G|------------------------------------------------------------|
D|-------5-3------------------5-3------------------5-3---35-5-|
A|-----------5-5-5-3--------------5-5-5-3--------------5---3--|
E|-3-3-3-------------6--3-3-3-------------6--3-3-3------------|

G|---------------------------------------------------------------------------------|
D|-------5-3------------------5-3------------------5-3------------------5-3---35-5-|
A|-----------5-5-5-3--------------5-5-5-3--------------5-5-5-3--------------5---3--|
E|-3-3-3-------------6--3-3-3-------------6--3-3-3-------------6--3-3-3------------|

G|----------------------------------------------------------------------------------------------|
D|-------5-3------------------5-3------------------5-3------------------5-3---35-5--------5-3---|
A|-----------5-5-5-3--------------5-5-5-3--------------5-5-5-3--------------5---3---------------|
E|-3-3-3-------------6--3-3-3-------------6--3-3-3-------------6--3-3-3-------------3-3-3-----1-|
[ Tab from: http://www.guitartabs.cc/tabs/t/the_wanted/glad_you_came_btab.html ]
G|-------------------------------------------------------------------------|
D|-------5-3------------------5-3------------------5-3---35-5--------5-3---|
A|-----------5-5-5-3--------------5-5-5-3--------------5---3---------------|
E|-3-3-3-------------6--3-3-3-------------6--3-3-3-------------3-3-3-----1-|

G|------------------------------------------------------------|
D|-------5-3------------------5-3------------------5-3---35-5-|
A|-----------5-5-5-3--------------5-5-5-3--------------5---3--|
E|-3-3-3-------------6--3-3-3-------------6--3-3-3------------|

G|------------------------------------------------------------------------------------|
D|-------5-3------------------5-3------------------5-3------------------5-3-----------|
A|-----------5-5-5-3--------------5-5-5-3--------------5-5-5-3--------------5-5-5-3---|
E|-3-3-3-------------6--3-3-3-------------6--3-3-3-------------6--3-3-3-------------6-|

G|----------------------------------------------------------------------------------------------|
D|-------5-3------------------5-3------------------5-3------------------5-3---35-5--------5-3---|
A|-----------5-5-5-3--------------5-5-5-3--------------5-5-5-3--------------5---3---------------|
E|-3-3-3-------------6--3-3-3-------------6--3-3-3-------------6--3-3-3-------------3-3-3-----1-|

G|-------------------------------------------------------------------------|
D|-------5-3------------------5-3------------------5-3---35-5--------5-3---|
A|-----------5-5-5-3--------------5-5-5-3--------------5---3---------------|
E|-3-3-3-------------6--3-3-3-------------6--3-3-3-------------3-3-3-----1-|

G|------------------------------------------------------------------------------------|
D|-------5-3------------------5-3------------------5-3------------------5-3-----------|
A|-----------5-5-5-3--------------5-5-5-3--------------5-5-5-3--------------5-5-5-3---|
E|-3-3-3-------------6--3-3-3-------------6--3-3-3-------------6--3-3-3-------------6-|

G|---------------------------------------------------------------|
D|-------5-3------------------5-3------------------5-3-----------|
A|-----------5-5-5-3--------------5-5-5-3--------------5-5-5-3---|
E|-3-3-3-------------6--3-3-3-------------6--3-3-3-------------6-|

G|------------------------------------------------------|
D|------------------------------------------------------|
A|---------------------------5-------1------5-------1---|
E|-3-3-3--36--1-1-1-1-3--3-------3------3-------3------3|
Comments