The Verve Pipe - The Freshmen Chords & Tabs

 

The Freshmen Chords & Tabs

The Verve Pipe Chords & Tabs

Version: 1 Type: Tab 0 ratings
1 star 2 stars 3 stars 4 stars 5 stars
comments

The Freshmen Tab

   
#----------------------------------PLEASE NOTE--------------------------------#
#This file is the author's own work and represents their interpretation of the#
#song. You may only use this file for private study, scholarship, or research.#
#-----------------------------------------------------------------------------#

Date: Tue, 24 Mar 1998 16:57:23 -0600
!From: Steve Jang 
Subject: TAB: The Freshmen by Verve Pipe

The Freshmen - The Verve Pipe

Tabbed by:  Steve Jang

USE -=SIZE 8 FONT=- FOR BEST RESULTS

This is an update to my older post.  I looked at it a couple of weeks ago, and
I didn't realize how many mistakes I left in there.  This version should be
very close to how the song is really played.  My older version is at the bottom
in case you wanted to see the differences.
Any comments are welcome.  Send to:  primetim@ix.netcom.com

* Capo 2nd Fret

Intro Riff
  Dsus2              G           Bm                G
E|---------0-------|---------3-|-----------------|-----------|
B|-----3---------3-|-----0-----|---------3-------|---------0-|
G|---2---2-----2---|---0---0---|-----4---------4-|-----0-----|
D|-0---------------|-----------|---4---4-----4---|---0---0---|
A|-----------------|-----------|-2---------------|-----------|
E|-----------------|-3---------|-----------------|-3---------|

Verse Riff
  Dsus2              G           Bm                G
E|---------0-------|---------3-|-----------------|-----------|
B|-----3-------3---|-----0-----|---------3-------|---------0-|
G|---2---2---2---2-|---0---0---|-----4-------4---|-----0-----|
D|-0---------------|-----------|---4---4---4-----|---0---0---|
A|-----------------|-----------|-2-------------0-|-----------|
E|-----------------|-3---------|-----------------|-3---------|
[ Tab from: http://www.guitartabs.cc/tabs/t/the_verve_pipe/the_freshmen_tab.html ]
Pre-Chorus Riff
   Bm        A         G
E|---------|---------|-----------|
B|---------|---------|---------0-|
G|-----4---|-----2---|-----0-----|
D|---4---4-|---2---2-|---0---0---|
A|-2-------|-0-------|-----------|
E|---------|---------|-3---------|

Chorus Riff
   Dsus2             G                 Bm                G          *Not played 2nd time 
E|---------0-------|---------3-------|-----------------|-----------|-------|
B|-----3-------3---|-----0-------0---|---------3-------|---------0-|-------|
G|---2---2---2---2-|---0---0---0---0-|-----4-------4---|-----0-----|---0---|
D|-0---------------|-----------------|---4---4---4-----|---0---0---|-0---0-|
A|-----------------|-----------------|-2-------------0-|-----------|-------|
E|-----------------|-3---------------|-----------------|-3---------|-------|

Fills: (Played by Guitar 2 w/ Distortion - Regular Tuning)
  __________________________     ______________________________
 | 1.                       |   | 2.                           |
E|--------------------------|  E|------------------------------|
B|--------------------------|  B|------------------------------|
G|------9-11------------9\8-|  G|-9-8-9---9-8-9---9-8-9-9^-8-9-|
D|-9-11------------9-11-----|  D|------------------------------|
A|--------------------------|  A|------------------------------|
E|--------------------------|  E|------------------------------|

Outro Riff:
E|---------------------------------------------------------|
B|--------10-9---------------------10----------------------|
G|------9--------9-9/11--------------------------9\8---(9)-|
D|-9-11--------9-------------11-------------9-11-----------|
A|------------------------12----12-------------------------|
E|---------------------------------------------------------|
Comments