The Veronicas - Everything Im Not Chords & Tabs

 

Everything Im Not Chords & Tabs

The Veronicas Chords & Tabs

Version: 1 Type: Tab

Everything Im Not Tab

   
-------------------------------------------------------------------------------
			     SONG NAME - Band Name
-------------------------------------------------------------------------------
Tabbed by: Erika
Email: i.lubz.co0keiiz@gmail.com

Tuning: Standard

Intro/Verse
e|------------------------------------------------------------------|
B|------------------------------------------------------------------|
G|------------------------------------------------------------------|
D|---------------7-7-7-7-7-7-7-7-0-9-9-9-9-9-9-9-9-9-9-9-9-9-9-9-9--|
A|-7-7-7-7-7-7-7-9-9-9-9-9-9-9-9-0-7-7-7-7-7-7-7-7------------------|
E|-5-5-5-5-5-5-5-----------------------------------9-9-9-9-7-7-7-7--|

Background guitar on “Coz you’re so perfect”
e|--------------------------------------------------------|
B|--------------------------------------------------------|
G|--------------------------------------------------------|
D|--------------------------------------------------------|
A|---10----10----9----7----7------------------------------|
E|-9----10----10---10---10---10---------------------------|


Chorus
        F#M                Dsus2
I was losing myself to somebody else
     A         E
But now I see
	F#M                    Dsus2
I don’t wanna pretend so this is the end
   A          Em
Of you and me
          F#M           Dsus2
Coz the girl, that you want
         A           E
She was tearing us apart
            B           D
Coz she’s everything, everything I’m not

Verse
e|------------------------------------------------------------------|
B|------------------------------------------------------------------|
G|------------------------------------------------------------------|
D|---------------7-7-7-7-7-7-7-7-0-9-9-9-9-9-9-9-9-9-9-9-9-9-9-9-9--|
A|-7-7-7-7-7-7-7-9-9-9-9-9-9-9-9-0-7-7-7-7-7-7-7-7------------------|
E|-5-5-5-5-5-5-5-----------------------------------9-9-9-9-7-7-7-7--|
[ Tab from: http://www.guitartabs.cc/tabs/t/the_veronicas/everything_im_not_tab.html ]
Background guitar on “Like you’re so perfect”
e|--------------------------------------------------------|
B|--------------------------------------------------------|
G|--------------------------------------------------------|
D|--------------------------------------------------------|
A|---10----10----9----7----7------------------------------|
E|-9----10----10---10---10---10---------------------------|


Chorus
        F#M                Dsus2
I was losing myself to somebody else
     A         E
But now I see
	F#M                    Dsus2
I don’t wanna pretend so this is the end
   A          Em
Of you and me
          F#M           Dsus2
Coz the girl, that you want
         A           E
She was tearing us apart
            B           D
Coz she’s everything, everything I’m not


Bridge
F#M
Now wait a minute
Dsus2
Because of you
F#M     Dsus2          A
I never knew all the things that I had
F#
Hey don’t you get it
Dsus2           Dsus2
I’m not going anywhere with you tonight
     E
Coz this is my life

Play this again
e|------------------------------------------------------------------|
B|------------------------------------------------------------------|
G|------------------------------------------------------------------|
D|---------------7-7-7-7-7-7-7-7-0-9-9-9-9-9-9-9-9-9-9-9-9-9-9-9-9--|
A|-7-7-7-7-7-7-7-9-9-9-9-9-9-9-9-0-7-7-7-7-7-7-7-7------------------|
E|-5-5-5-5-5-5-5-----------------------------------9-9-9-9-7-7-7-7--|


Chorus
        F#M                Dsus2
I was losing myself to somebody else
     A         E
But now I see
	F#M                    Dsus2
I don’t wanna pretend so this is the end
   A          Em
Of you and me
          F#M           Dsus2
Coz the girl, that you want
         A           E
She was tearing us apart
            B           D
Coz she’s everything, everything I’m not

Its quite easy to play... sounds 99% correct haha.. If theres anything wrong,
feel free to make alterations to it!