The Veronicas - 4ever Chords & Tabs

 

4ever Chords & Tabs

The Veronicas Chords & Tabs

Version: 5 Type: Tab

4ever Tab

   
Tuning: standard

Guitar 1:
INTRO
e|--------------------|
B|--------------------|
G|-----4--------------|
D|-3-3----3-3-3-3-333-|
A|--------------------|
E|--------------------|

VERSE
e|--------------------|
B|--------------------|
G|-----4--------------|
D|-3-3----3-3-3-3-333-| x3
A|--------------------|
E|--------------------|

e|--------------------|
B|--------------------|
G|------4-------------|
D|-3-3----3-4-444-----| 
A|----------------4-4-| 
E|--------------------|

REPEAT VERSE

CHORUS
e|--------------|      |-------------------------|
B|--------------|      |-------------------------|
G|----6-----8---|      |----6--10--10----6-----8-|
D|-3--6--6--8---| x2   |-8--6--10--10-8--6--6--8-|
A|-3--4--6--6---|      |-8--4--8---8--8--4--6--6-|
E|-1-----4------|      |-6------------6-----4----|


VERSE

CHORUS

BRIDGE
e|---------------------------|
B|---------------------------|
G|-6-x--10--6-x--10--5--6--6-|
D|-6-x--10--6-x--10--5--6--6-|
A|-4-x--8---4-x--8---3--4--4-|
E|---------------------------|

e|-------------------|
B|-------------------|
G|-------------------|
D|-------------------| x4
A|-----2-------------|
E|-1-1---1-1-1-1-111-|

REPEAT CHORUS x2

----------------------------------------------------

Guitar 2:

INTRO no guitar 2
[ Tab from: http://www.guitartabs.cc/tabs/t/the_veronicas/4ever_tab_ver_5.html ]
VERSE [second half]
e|-----------|
B|-{rest}-9--|
G|-----------|
D|-----------| x4
A|-----------|
E|-----------|

CHORUS
e|--------------|      |-------------------------|
B|--------------|      |-------------------------|
G|----6-----8---|      |----6-----10-----6-----8-|
D|-3--6--6--8---| x2   |-8--6--3--10--8--6--6--8-|
A|-3--4--6--6---|      |-8--4--3--8---8--4--6--6-|
E|-1-----4------|      |-6-----1------6-----4----|

VERSE
e|----------|
B|----------|
G|-{rest}-9-|
D|----------| x4
A|----------|
E|----------|

e|----------------------|
B|-9-9-99-8-8-6-6-6-666-|
G|----------------------|
D|----------------------| x3
A|----------------------|
E|----------------------|

e|------------------|
B|-9-9-77-----------|
G|--------3-3-3-333-|
D|------------------|
A|------------------|
E|------------------|

CHORUS

BRIDGE
e|-------------------------|
B|-------------------------|
G|-6-x-----6-x-----5--6--6-|
D|-6-x--3--6-x--3--5--6--6-|
A|-4-x--3--4-x--3--3--4--4-|
E|------1-------1----------|

No guitar 2
e|-------------------|
B|-------------------|
G|-------------------|
D|-------------------| x2
A|-------------------|
E|-------------------|

e|--------------------|
B|--------------------|
G|-----4--------------|
D|-3-3----3-3-3-3-333-| x2
A|--------------------|
E|--------------------|

REPEAT CHORUS x2

Well that's it, my first tab, enjoy!

Kristin