The Velisha - Diseased Conformity Chords & Tabs

 

Diseased Conformity Chords & Tabs

The Velisha Chords & Tabs

Version: 1 Type: Tab 0 ratings
1 star 2 stars 3 stars 4 stars 5 stars
comments

Diseased Conformity Tab

   
The velisha are a fairly underground punk band from Fresno, CA.  One of their members
is part of UG.  The site is www.thevelisha.com .  They recently released their first
full length.  Theyre definitly a real band, dont worry. :) 

-------------------------------------------------------------------------------
			     Diseased Conformity - The Velisha
-------------------------------------------------------------------------------
Tabbed by: Garrett M.
Email: Skiracer110@hotmail.com
AIM: Skiracer271

Tuning:Standard

INTRO: Guitar 1
e|---------------------------------------------------------------------------|
B|---------------------------------------------------------------------------|
G|----------6-9---------6-9---------6-9---------6-9--------------------------|
D|--8-8-8-8-6-9-8-8-8-8-6-9-8-8-8-8-6-9-8-8-8-8-6-9--------------------------|
A|--8-8-8-8-4-7-8-8-8-8-4-7-8-8-8-8-4-7-8-8-8-8-4-7--------------------------|
E|--6-6-6-6-----6-6-6-6-----6-6-6-6-----6-6-6-6------------------------------|

Then Guitar 1 plays that same thing, while guitar 2 and the bass play the A#
on the first beat each time and hold it.

Then the whole band plays that opening riff together 4 times, and then plays

e|---------------------------------------------------------------------------|
B|---------------------------------------------------------------------------|
G|--8-8-8-8-9-9-6-6-8-8-8-8-9-9-6-6---------6-9---------6-9------------------|
D|--8-8-8-8-9-9-6-6-8-8-8-8-9-9-6-6-8-8-8-8-6-9-8-8-8-8-6-9------------------|
A|--6-6-6-6-7-7-4-4-6-6-6-6-7-7-4-4-8-8-8-8-4-7-8-8-8-8-4-7------------------|
E|----------------------------------6-6-6-6-----6-6-6-6----------------------|

Its the main riff for the first singer, then for the first two lines of the 
second:
[ Tab from: http://www.guitartabs.cc/tabs/t/the_velisha/diseased_conformity_tab.html ]
e|---------------------------------------------------------------------------|
B|---------------------------------------------------------------------------|
G|--8-8-8-8-9-9-6-6-8-8-8-8-9-9-6-6------------------------------------------|
D|--8-8-8-8-9-9-6-6-8-8-8-8-9-9-6-6------------------------------------------|
A|--6-6-6-6-7-7-4-4-6-6-6-6-7-7-4-4------------------------------------------|
E|---------------------------------------------------------------------------|

Then back to the first riff for the last two lines.  That repeats again until
it breaks and they strum the A# twice a bit spaced out.  Some pickslides at 
the end and then:

e|---------------------------------------------------------------------------|
B|---------------------------------------------------------------------------|
G|-8-8-8-8-8-8-8-8-9-9-9-9-9-9-9-9-6-6-6-6-6-6-6-6-8-8-8-8-8-8-8-8-----------|
D|-8-8-8-8-8-8-8-8-9-9-9-9-9-9-9-9-6-6-6-6-6-6-6-6-8-8-8-8-8-8-8-8-----------|
A|-6-6-6-6-6-6-6-6-7-7-7-7-7-7-7-7-4-4-4-4-4-4-4-4-6-6-6-6-6-6-6-6-----------|
E|---------------------------------------------------------------------------|

That 4 times, the vocals come in after the 2nd, and the notes are spaced out
the last part of the second time, which i dont feel the need to tab.  Then
where hes like "No remorse for me!" its (i think):

e|---------------------------------------------------------------------------|
B|---------------------------------------------------------------------------|
G|--9-8-6--------------------------------------------------------------------|
D|--9-8-6-9-8----------------------------------------------------------------|
A|--7-6-4-9-8----------------------------------------------------------------|
E|--------7-6----------------------------------------------------------------|



Then it returns to the riff in the second part of the intro, then the same
stuff for the verse, except its shorter, then the bridge part or whatever 
you call it with the no remorse for me, then hold the last A#.

Im pretty confident its right.  Garth, or any other members of the band,
feel free to make corrections.  Other people too.  Velisha kickass.



| /  slide up
| \  slide down
| h  hammer-on
| p  pull-off
| ~  vibrato
| +  harmonic
| x  Mute note
===============================================================================
Comments