The Veils - The Leavers Dance Chords & Tabs

 

The Leavers Dance Chords & Tabs

The Veils Chords & Tabs

Version: 1 Type: Tab 1 rating
1 star 2 stars 3 stars 4 stars 5 stars
comments

The Leavers Dance Tab

   

The Veils - The Leavers Dance
(correct version - i hope!)
email: thegamerboy@gmail.com

Riff:  
    B                            
e|----11-------11-------11------11-------11-------11-----------------
B|-------12-------12-------12------12-------12-------12--------------
G|----------11-------11---------------11-------11--------------------
D|-------------------------------------------------------------------
A|-------------------------------------------------------------------
E|-------------------------------------------------------------------
[ Tab from: http://www.guitartabs.cc/tabs/t/the_veils/the_leavers_dance_tab.html ]
   F#                            
e|----9--------9-------9-------9-------9-------9---------------------
B|------11-------11--------11----11------11------11------------------
G|---------11-------11--------------11------11-----------------------
D|-------------------------------------------------------------------
A|-------------------------------------------------------------------
E|-------------------------------------------------------------------

   E
e|----7-----7-----7-----7-----7-----7--------------------------------
B|------9-----9-----9-----9-----9-----9------------------------------
G|--------9-----9-----------9-----9----------------------------------
D|-------------------------------------------------------------------
A|-------------------------------------------------------------------
E|-------------------------------------------------------------------

  F#                            
e|----9--------9-------9-------9-------9-------9---------------------
B|------11-------11--------11----11------11------11------------------
G|---------11-------11--------------11------11-----------------------
D|-------------------------------------------------------------------
A|-------------------------------------------------------------------
E|-------------------------------------------------------------------



Verses, Chorus:

B / F# / E / F#
Comments