The Veils - Nowhere Man Chords & Tabs

 

Nowhere Man Chords & Tabs

The Veils Chords & Tabs

Version: 1 Type: Tab 0 ratings
1 star 2 stars 3 stars 4 stars 5 stars
comments

Nowhere Man Tab

   
****************************************************************************
                       The Nowhere Man - The Veils
****************************************************************************

Tabbed by: Paul
Website: http://www.theveils.net
Contact: http://forum.theveils.net

Tuning: EADGBe

capo on 5th fret

=============

C    x32010
G    320003
E    022100
Am   x02210

=============

[ Tab from: http://www.guitartabs.cc/tabs/t/the_veils/nowhere_man_tab.html ]
|----------0------|---------3-1-0--|-----------------|---------------|
|------------1----|----------------|----------1-0----|--------1-0----|
|-------0------0--|----------------|--------0-----0--|------0-----0--|
|----2------------|------0---------|----0h2----------|--0h2----------|    x4
|--3--------------|----2-----------|--3--------------|---------------|
|-----------------|--3-------------|-----------------|---------------|


|--------0------|
|----------0----|
|------------1--|
|------2--------|   x4
|----2----------|
|--0------------|


|--------0------|---------0------|--------0------|--------0------|
|----------1----|-----------1----|----------1----|----------1----|
|------2-----2--|------0------0--|------0-----0--|------0-----0--|
|----2----------|----2-----------|----2----------|----2----------|
|--0------------|----------------|---------------|---------------|
|---------------|--3-------------|--2------------|--1------------|


|--------1------|
|----------1----|
|------------2--|
|------3--------|   x2
|----3----------|
|--1------------|


|--------1------|
|----------1----|
|------------1--|
|------3--------|   x2
|----3----------|
|--1------------|



missing some parts, so feel free to improve and share your work with us.
Comments