The Veils - Leavers Dance Chords & Tabs

 

Leavers Dance Chords & Tabs

The Veils Chords & Tabs

Version: 3 Type: Tab 0 ratings
1 star 2 stars 3 stars 4 stars 5 stars
comments

Leavers Dance Tab

   
-------------------------------------------------------------------------------
			The Leavers Dance - The Veils
-------------------------------------------------------------------------------
Tabbed by:Harry Clapham
Email:krosancolossus@hotmail.com

Tuning:Normal.

Quite an easy song to play, but uses some nice chords and creates a nice tension without 
to overdrive.

Intro/verse riff.

e|-11----11----11--11----11----11---9----9----9---9----9----9----------------|
B|---12----12----12--12----12----12--12---12---12--12---12---12--------------|
G|-----11----11--------11----11--------11---11------11---11------------------|
D|---------------------------------------------------------------------------|
A|---------------------------------------------------------------------------|
E|---------------------------------------------------------------------------|
[ Tab from: http://www.guitartabs.cc/tabs/t/the_veils/leavers_dance_tab_ver_3.html ]
e|-7--7--7----7--7--7--9----9----9---9----9----9-----------------------------|
B|--9--9-------9--9-----12---12---12--11---11---11---------------------------|
G|---8--8-8/9---9--9------11---11-------11---11------------------------------|
D|---------------------------------------------------------------------------|
A|---------------------------------------------------------------------------|
E|---------------------------------------------------------------------------|


Here are the chords played in the chorus. Guitar one plays them one octive higher than 
two, useing the same shapes as the intro/verse arpeggios.

Bmaj7
e|--7--------|
B|--7--------|
G|--8--------|
D|--9--------|
A|--9--------|
E|--7--------|

B sus2
e|--x--------|
B|--x--------|
G|--6--------|
D|--9--------|
A|--9--------|
E|--7--------|

B sus4
e|--x--------|
B|--x--------|
G|--9--------|
D|--9--------|
A|--9--------|
E|--7--------|

G#m
e|--x--------|
B|--x--------|
G|--4--------|
D|--6--------|
A|--6--------|
E|--4--------|

G#/Emaj7
e|--x--------|
B|--x--------|
G|--4--------|
D|--6--------|
A|--7--------|
E|--4--------|

Bmaj7 sus2
e|--x--------|
B|--x--------|
G|--6--------|
D|--8--------|
A|--9--------|
E|--7--------|

The chord changes go like this:
Bmaj7 / / / Bmaj7 / / / B sus2 / / / B sus4 / Bmaj7 B sus2
G#m / / / G#/Emaj7 / / / B sus2 / / / Bmaj7 sus2 / / /

Rinse and repeat!
There is the odd change in the chords as the song gains momentum, but they are slight 
can be picked up on if you use ears!

| /  slide up
| \  slide down
| h  hammer-on
| p  pull-off
| ~  vibrato
| +  harmonic
| x  Mute note
===============================================================================
Comments