The Veils - Leavers Dance Chords & Tabs

 

Leavers Dance Chords & Tabs

The Veils Chords & Tabs

Version: 2 Type: Tab 0 ratings
1 star 2 stars 3 stars 4 stars 5 stars
comments

Leavers Dance Tab

The Veils - The Leavers Dance

e|---9-------9-------9-------9-------9-------9---------------------|
B|-----10------10------10------10------10------10------------------|
G|--------9-------9---------------9-------9------------------------|
D|-----------------------------------------------------------------|
A|-----------------------------------------------------------------|
E|-----------------------------------------------------------------|
[ Tab from: http://www.guitartabs.cc/tabs/t/the_veils/leavers_dance_tab_ver_2.html ]
   
e|---7--------7---------7---------7---------7----------7-----------|
B|-----9--------9---------9---------9---------9----------9---------|
G|-------9--------9-------------------9---------9------------------|
D|-----------------------------------------------------------------|
A|-----------------------------------------------------------------|
E|-----------------------------------------------------------------|

e|---5--------5---------5--------5--------5----------5-------------|
B|-----7--------7---------7--------7--------7----------7-----------|
G|-------7--------7------------------7--------7--------------------|
D|-----------------------------------------------------------------|
A|-----------------------------------------------------------------|
E|-----------------------------------------------------------------|
Comments