The Veils - Leavers Dance Chords & Tabs

 

Leavers Dance Chords & Tabs

The Veils Chords & Tabs

Version: 1 Type: Tab 0 ratings
1 star 2 stars 3 stars 4 stars 5 stars
comments

Leavers Dance Tab

   
Artist   : The Veils
Song     : Leavers Dance
Tabbed by: Pedro Alegria | pedro_alegria@portugalmail.pt
Data/Date: 07/12/2004

 If you were in Portugal, you would be familiar to this song 'cause it's from a tv comercial
from a well know mobile phone operator called "OPTIMUS".

 Em português: esta música é do anúncio da "optimus", refrente à recente campanha da mesma.


Chords:

Bm  : 224442
F#m : 244322
E   : 022100


Riff:
    Bm
e|-------------------------------------------------------------------|
B|--4-----4-----4------4-----4------4--------------------------------|
G|----4-----4-----4------4-----4------4------------------------------|
D|------4-----4------------4-----4-----------------------------------|
A|-------------------------------------------------------------------|
E|-------------------------------------------------------------------|
[ Tab from: http://www.guitartabs.cc/tabs/t/the_veils/leavers_dance_tab.html ]
   F#m
e|-------------------------------------------------------------------|
B|--2-----2-----2------2-----2------2--------------------------------|
G|----3-----3-----3------3-----3------3------------------------------|
D|------4-----4-------------4----4-----------------------------------|
A|-------------------------------------------------------------------|
E|-------------------------------------------------------------------|

   E
e|-------------------------------------------------------------------|
B|--0-----0-----0------0-----0------0--------------------------------|
G|----1-----1-----1------1-----1------1------------------------------|
D|------2-----2------------2-----2-----------------------------------|
A|-------------------------------------------------------------------|
E|-------------------------------------------------------------------|

  F#m
e|-------------------------------------------------------------------|
B|--2-----2-----2------2-----2------2--------------------------------|
G|----3-----3-----3------3-----3------3------------------------------|
D|------4-----4-------------4----4-----------------------------------|
A|-------------------------------------------------------------------|
E|-------------------------------------------------------------------|

Verses, Chorus:

Bm / F#m / E / F#m
Comments