The Veils - Guiding Light Chords & Tabs

 

Guiding Light Chords & Tabs

The Veils Chords & Tabs

Version: 1 Type: Tab 0 ratings
1 star 2 stars 3 stars 4 stars 5 stars
comments

Guiding Light Tab

   
**************************************************************************
                        Guiding Light - The Veils
**************************************************************************

Tabbed by: Paul
Website: http://www.theveils.net
Email: http://forum.theveils.net

Tuning: EADGBe

==========================
G	 x 10 12 12 12 10
Em	 x  7  9  9  8  7
C	 8 10 10  9  8  8
D	10 12 12 11 10 10
==========================


Riff 1
e|-----------------------------------------------|
B|------------12---12---10---10---8---8---7---7--| 
G|--7s12----12---12---11---11---9---9---7---7----| 
D|-----------------------------------------------|
A|-----------------------------------------------|
E|-----------------------------------------------|

Riff 2
e|-----7---5---5---3---2---2-|
B|---8---8---7---5---5---3---|
G|---------------------------|
D|---------------------------|
A|---------------------------|
E|---------------------------|

Riff 3
e|-------------------------------------------------|
B|-12----12----10----10----12----12----13----13----|
G|----12----12----11----11----12----12----14----14-| 
D|-------------------------------------------------|
A|-------------------------------------------------|
E|-------------------------------------------------|
[ Tab from: http://www.guitartabs.cc/tabs/t/the_veils/guiding_light_tab.html ]
Riff 4
e|-15----15----15----15------14------------|
B|----15----15----15----15-------15-12-15--|
G|-----------------------------------------|
D|-----------------------------------------|
A|-----------------------------------------|
E|-----------------------------------------|

G Em C D (With Riff 1)

G
I'm fine from within
Em
Just better without
C
This noose around my neck
D
Is counting me out


G (Riff 2)
Whenever I run
Em
My beautiful sin
C
Is calling outside
D (Riff 3)
And it's that that reminds me of you


G (Riff 1)
Now our every last effort tried
Em
So far has been denied
C
It's easy to cry for love
D
Far harder to try
G
There goes my guiding light
Em
Farewell my guiding light
C			   D
There goes my guiding light


G
I fought my way in
Em
But I can't find a way out
C
Of this weightless regret
D
Surrounding me now


G (Riff 2)
And whenever I run
Em
Some beautiful sin
C
Is calling outside
D (Riff 3)
And it's that that reminds me of you


G (Riff 1)
Now our every last effort tried
Em
So far has been denied
C
It's easy to cry for love
D
Far harder to try


G (Riff 1)
There goes my guiding light
Em
Farewell my guiding light
C
There goes my guiding light
D
Farewell my guiding light
G (Riff 4)
There goes my guiding light
Em
There goes my guiding light
C			   D
There goes my guiding light
Comments