The Vasco Era - Dont Go To Sleep Chords & Tabs

 

Dont Go To Sleep Chords & Tabs

The Vasco Era Chords & Tabs

Version: 1 Type: Bass Tab

Dont Go To Sleep Bass Tab

BY CALEB DAWSON

  G -------------------------------------|
  D -------------------------------------|
  A ---------0-0-2-222-------------------|
  E --0-3030-----------------------------|

[ Tab from: http://www.guitartabs.cc/tabs/t/the_vasco_era/dont_go_to_sleep_btab.html ]
  G -------------------------------------|
  D --0----------------------------------|
  A ----3-2-0-0--0-0---------------------|
  E ---------3---------------------------|


  G -------------------------------------|
  D --------------------------2-22-22----|
  A -----0-------0-------0---------------|
  E -0-30--30-030--3-0-30--30------------|