The Used - Maybe Memories Chords & Tabs

 

Maybe Memories Chords & Tabs

The Used Chords & Tabs

Version: 1 Type: Tab 0 ratings
1 star 2 stars 3 stars 4 stars 5 stars
comments

Maybe Memories Tab

 Maybe Memories
 The Used
 The Used Track #1

 This was posted but it was just chords and it was in spanish
Drop D Tuning (DADGBe), when Quin plays it live he plays it in drop C# tuning

* = Palm Mute  ~ = Hold Note

Intro

e|-----------------------
B|-----------------------
G|-----------------------
D|-----------------------
A|-----------------------
D|-2-2-2-0-2-2-2-0 ect.--
   * * * * * * * *
After a while of playing slow stop palm muting

Verse

e|-------------------------
B|-------------------------
G|-------------------------
D|-2-2-2-0-2-2-2-0---------
A|-2-2-2-0-2-2-2-0- -------
D|-2-2-2-0-2-2-2-0---------

Chorus

e|--------------------------------------------
B|--------------------------------------------
G|-5-5-555-7-7777---5-5-555-7-7777------------
D|-5-5-555-7-7777---5-5-555-7-7777-00000------
A|-3-3-333-5-5555---3-3-333-5-5555-00000------
D|---------------------------------00000------
                                   *****
[ Tab from: http://www.guitartabs.cc/tabs/t/the_used/maybe_memories_tab.html ]
Bridge
           ******          *******        *******        *******
e|---------000000----------0000000--------0000000--------0000000--
B|----------------------------------------------------------------
G|----------------------------------------------------------------
D|-2-2-2-0---------2-2-2-0---------2-2-2-0-------2-2-2-0----------
A|-2-2-2-0---------2-2-2-0---------2-2-2-0-------2-2-2-0----------
D|-2-2-2-0---------2-2-2-0---------2-2-2-0-------2-2-2-0----------

Bridge 2

e|-------------------------------------------------
B|-------------------------------------------------
G|-44444-555-7777--44444-777-9999------------------
D|-44444-555-7777--44444 777 9999-10~--------------
A|-22222-333-5555--22222-555-7777-10~--------------
D|--------------------------------10~--------------

Interlude
e|-------------------------------------------------
B|---8-------------8--8--8--8---8--8--8------------
G|-9------------------------------------ ect. -----
D|------10---------10-10-10-10-10-10-10------------
A|---------11------11-11-11-11-11-11-11------------
D|-------------------------------------------------

Soft Chorus

e|---------------------------------------------------------------------
B|---------------------------------------------------------------------
G|-5-5-555-7-7777---5-5-555-7-7777---5-5-555-7-7777---5-5-555-7-7777---
D|-5-5-555-7-7777---5-5-555-7-7777---5-5-555-7-7777---5-5-555-7-7777---
A|-3-3-333-5-5555---3-3-333-5-5555---3-3-333-5-5555---3-3-333-5-5555---
D|---------------------------------------------------------------------
Comments