The Used - I Caught Fire Chords & Tabs

 

I Caught Fire Chords & Tabs

The Used Chords & Tabs

Version: 1 Type: Tab 0 ratings
1 star 2 stars 3 stars 4 stars 5 stars
comments

I Caught Fire Tab

-|-9p0-4p0-2h4p0--7p0-4p0-2h4p0-2p0-|-x8-------------------------------------|
-|----------------------------------|----------------------------------------|
-|----------------------------------|----------------------------------------|
-|----------------------------------|----------------------------------------|
-|----------------------------------|----------------------------------------|
-|----------------------------------|----------------------------------------|
    intro ( rightway)
-|-9p0-----------7p0----------------|-x8-------------------------------------|
-|-----9p0-7h9p0-----9p0-7h9p0-7p5--|----------------------------------------|
-|----------------------------------|----------------------------------------|
-|----------------------------------|----------------------------------------|
-|----------------------------------|----------------------------------------|
-|----------------------------------|----------------------------------------|
  or this way (doesnt sound rightthough!)
-|----------------------000000000000000-------------------------------------|
-|-5-5-------4-4--------000000000000000----------------------55555555-------|
-|-6-6-------4-4--------111111111111111--444444444--22222222-66666666-444444|
-|-6-6-66666-4-4-44444--222222222222222--444444444--22222222-66666666-444444|
-|-4-4-44444-2-2-22222--222222222222222--222222222--00000000-44444444-222222|
-|----------------------000000000000000-------------------------------------|
   rhythmguitar
-|-4------9-------7----------4------9-----7----------|-----------------------|
-|-5--------9---------9------5---------9--------9----|-----------------------|
-|-6-------------------------6-----------------------|-----------------------|
-|---------------------------------------------------|-----------------------|
-|---------------------------------------------------|-----------------------|
-|---------------------------------------------------|-----------------------|
   verse
-|-------------------------------------------------------|-------------------|
-|-------------------------------------------------------|-------------------|
-|--6666666666666666--9999999999999999---2-2-----2-2-----|-------------------|
-|---------------------------------------2-2-----2-2-----|-------------------|
-|---------------------------------------0-0-----0-0-----|-------------------|
-|-------------------------------------------------------|-------------------|
   verse cont...palmmuted
-|-5555555555555555---55-55555|----------------------------------------------|
-|------------------5---------|----------------------------------------------|
-|----------------------------|----------------------------------------------|
-|----------------------------|----------------------------------------------|
-|----------------------------|----------------------------------------------|
-|----------------------------|----------------------------------------------|
 pre chorus....with weird ffect (5 is harmonic on 5)
-|-0000000000000----------------------------------------------------|--------|
-|-0000000000000--44444444444444--22222222222222-5555555-4444444----|--------|
-|-1111111111111--44444444444444--22222222222222-6666666-4444444----|--------|
-|-2222222222222--44444444444444--22222222222222-6666666-4444444----|--------|
-|-2222222222222--22222222222222--00000000000000-4444444-2222222----|--------|
-|-0000000000000----------------------------------------------------|--------|
  chorus
-|-9p0-4p0-2h4p0--7p0-4p0-2h4p0-2p0-|-x2-------------------------------------|
-|----------------------------------|----------------------------------------|
-|----------------------------------|----------------------------------------|
-|----------------------------------|----------------------------------------|
-|----------------------------------|----------------------------------------|
-|----------------------------------|----------------------------------------|

--|-9-----9----12----9----9---9---9---9---9----12----12----12----12----------|
--|-9-----9----12----9--9---9---9---9---9---12----12----12----12-------------|
--|-9------------------------------------------------------------------------|
--|--------------------------------------------------------------------------|
--|--------------------------------------------------------------------------|
--|--------------------------------------------------------------------------|
 2nd verse(delay)
-|-----------------------------------------------0000000----------|----------|
-|-----------------------------------------------0000000-2222222--|----------|
-|-1414xx1414x1414xx1414--1414xx1414x1414xx1414--1111111-2222222--|----------|
-|--x-xxx-x-xx-x-xxx-x-x---x-xxx-x-xx-x-xxx-x-x--2222222-2222222--|----------|
-|-1212xx1212x1212xx1212--1212xx1212x1212xx1212--2222222-0000000--|----------|
-|-----------------------------------------------0000000----------|----------|

-|-------------------------------------------------00000000-----------|------|
-|-------------------------------------------------00000000-22222222--|------|
-|6666666666666666-9999999999999999----------------11111111-22222222--|------|
-|6666666666666666-9999999999999999--22-22-22-22-4-22222222-22222222--|------|
-|4444444444444444-7777777777777777--00-00-00-00-2-22222222-00000000--|------|
-|-------------------------------------------------00000000-----------|------|
   2nd guitar (comes in o 'trust these words'(palm muting
-|----------------------------00000000000000000000000000--|x2----------------|
-|-55555----------------------00000000000000000000000000--|------------------|
-|-66666--x--4---22222--x--4--11111111111444444444444444--|------------------|
-|-66666--x--4---22222--x--4--22222222222444444444444444--|------------------|
-|-44444--x--2---00000--x--2--22222222222222222222222222--|------------------|
-|----------------------------00000000000-----------------|------------------|
 middlesection
-|-4444444444444444--5555555555555555--00000000000000000000000000--|---------|
-|-5555555555555555--5555555555555555--00000000000000000000000000--|---------|
-|-------------------------------------11111111111144444444444444--|---------|
-|-------------------------------------22222222222244444444444444--|---------|
-|-------------------------------------22222222222222222222222222--|---------|
-|-------------------------------------000000000000----------------|---------|
   guitar 2 secondtime
-|---------------------|-12p0-7p0-5h7p0-7p0-4p0-2h4p0--|---------------------|
-|---------------------|-------------------------------|---------------------|
-|---------------------|-------------------------------|---------------------|
-|-4444444444444444----|-------------------------------|---------------------|
-|-4444444444444444----|-------------------------------|---------------------|
-|-2222222222222222----|-------------------------------|---------------------|
   little break rhythm   lead                                chorus toend
[ Tab from: http://www.guitartabs.cc/tabs/t/the_used/i_caught_fire_tab.html ]
Comments