The Used - Greener With The Scenery Chords & Tabs

 

Greener With The Scenery Chords & Tabs

The Used Chords & Tabs

Version: 1 Type: Tab 0 ratings
1 star 2 stars 3 stars 4 stars 5 stars
comments

Greener With The Scenery Tab

The Used
Greener With the Scenery
Self-titled

[ Tab from: http://www.guitartabs.cc/tabs/t/the_used/greener_with_the_scenery_tab.html ]
Main line
e----------------------------------------------------
B--5---5---3---0---0---------------------------------
G----2---2---2---2---2-5---5---5---5-----2---2---2---
D----------------------------2---2---2-----2---2-----
A--0---------0-----------0-------------0-------------
D----------------------------------------------------


Chorus
e---------------
B---------------
G--5---7--9--5--
D--3---------3--
A--3---5--7--3--
D--3---------3--

  ending
e--------------------
B--------------------
G--9--10---12---13---
D--7---8---10---11---
A--7---8---10---11---
D--7---8---10---11---
Comments