The Used - Choke Me Chords & Tabs

 

Choke Me Chords & Tabs

The Used Chords & Tabs

Version: 1 Type: Bass Tab 0 ratings
1 star 2 stars 3 stars 4 stars 5 stars
comments

Choke Me Bass Tab

I think this is pretty much it.
Just make sure you drop D 

Intro 
G|---------------------------------------------------------------------------| 
D|---------------------------------------------------------------------------| 
A|---------33----------------------------------------------------------------| 
E|---22/55---333-------------------------------------------------------------| 
[ Tab from: http://www.guitartabs.cc/tabs/t/the_used/choke_me_btab.html ]
Chorus 
G|---------------------------------------------------------------------------| 
D|---------------------------------------------------------------------------| 
A|---------------------------------------------------------------------------| 
E|---22--2-2-----------------------------------------------------------------| 


G|--------------------------------|------------------------------------------| 
D|--------------------------------|------------------------------------------| 
A|--------------------------------|------------------------------------------| 
E|---320320320320320320320320320--|--2-22--2-22------------------------------| 


G|---------------------------------------------------------------------------| 
D|---------------------------------------------------------------------------| 
A|---------------------------------------------------------------------------| 
E|---320320320320320320320320320---------------------------------------------| 
Comments