The Used - Buried Myself Alive Chords & Tabs

 

Buried Myself Alive Chords & Tabs

The Used Chords & Tabs

Version: 1 Type: Bass Tab 0 ratings
1 star 2 stars 3 stars 4 stars 5 stars
comments

Buried Myself Alive Bass Tab

The Used rules, and theres no tab of any of their songs, well im about to change that

Standad Tuning for a 5 string bass, but obviously this is a tab for 4 string!


Intro

|--------------------------------------------|
|--------------------------------------------|
|--------------------------------------------|
|-5-5-5-5-5---5-5-5-5---5-5-5-5---5-5-5-5----|

|---------------------|----------------------|
|---------------------|----------------------|
|--pause--------------|----------------------|
|---------------------|-2-2-2-2--2-2-2-2-----|

|---------------------|----------------------|
|---------------------|----------------------|
|---------------------|------pause-----------|
|-2-2-2-2--2-2-2-2----|----------------------|


|--------------------------------------------|
|--------------------------------------------|
|-3-3-3-3--3-3-3-3--3-3-3-3--3-3-3-3---------|
|--------------------------------------------|

|--------------------------------------------|
|--------------------------------------------|
|-5-5-5-5-5--5-5-5-5--5-5-5-5--5-5-5-5-------|
|--------------------------------------------|
[ Tab from: http://www.guitartabs.cc/tabs/t/the_used/buried_myself_alive_btab.html ]
Verse
|-------------------|------------------------|
|-------------------|------------------------|
|-10--10---10~10----|-------pause------------|
|-------------------|------------------------|

|--------------------------------------------|
|--------------------------------------------|
|-10---10--10~10--10----10h12--10------------|
|--------------------------------------------|

|--------------------------------------------|
|--------------------------------------------|
|-7--7--7~7--7-------------------------------|
|--------------------------------------------|

|--------------------------------------------|
|--------------------------------------------|
|-7---7--7~7-7-7-----7~9--7------------------|
|--------------------------------------------|

|------------|-------------------------------|
|------------|-------------------------------|
|-3---3--3~3-|-----5--5---5~5----------------|
|------------|-------------------------------|

|--------------------------------------------|
|--------------------------------------------|
|-10~~~~~~~~~~~~~~~~~~~10--------------------|
|--------------------------------------------|

Thats all I've tabbed for it, it doesnt really change to much after this.
      

 

      
Comments