The Used - Bulimic Chords & Tabs

 

Bulimic Chords & Tabs

The Used Chords & Tabs

Version: 1 Type: Tab 1 rating
1 star 2 stars 3 stars 4 stars 5 stars
comments

Bulimic Tab

   
Bulimic
The Used
The Used Track #3
 
 Verse Clean Electric
e
B 4 
G 6 
D 7 
A 7
D    
 This chord is used for the entire verses 
CHORUS Distorted
e
B
G 99999999 13-13-13-13-13-13-13-13
D 99999999 13-13-13-13-13-13-13-13
A 77777777 11-11-11-11-11-11-11-11
D 77777777 11-11-11-11-11-11-11-11 
[ Tab from: http://www.guitartabs.cc/tabs/t/the_used/bulimic_tab.html ]
Bridge clean/acoustic
e|----------------------------------------
b|--0--0-------0-0--0-0-0-0--0-0--0-0--0--
g|--9--9-------8-9--8-8-8-8--9-9--9-9--9--
d|--9--9-------9-9--9-9-9-9--9-9--9-9--9--
a|--7--7----------------------------7--7--
D|--7--7----------------------------7--7--

e|-----------------------------------------
b|--0---0-----0--0---0---0---0--0---0--0---
g|--13--13----13-13--13--13--13-13--13-13--
d|--13--13----13-13--13--14--14-13--13-13--
a|--11--11----11-11--11--11--11-11--11-11--
D|--11--11--------------------------11-11-- 

 Itlof
Comments