The Used - Blue And Yellow Chords & Tabs

 

Blue And Yellow Chords & Tabs

The Used Chords & Tabs

Version: 2 Type: Tab 3 ratings
1 star 2 stars 3 stars 4 stars 5 stars
comments

Blue And Yellow Tab

 Blue & Yellow	
 The Used 
 The Used (self titled) track #8 
 Dropped D Tuning
Verse

e|-------------------------------------------------
B|-------------------------------------------------
G|-10-10-10-10-109-9-9-9-9--10-10-10-10-10-10-10--
D|-x--x--x--x--x-x-x-x-x-x--8--8--8--8--8--8--8---
A|-8--8--8--8--8-7-7-7-7-7--8--8--8--8--8--8--8---
E|-0--0--0--0--0--0-0-0-0-0--8--8--8--8--8--8--8---

Pre-Chorus

G|-----10-------10------10--
D|--------------------------
A|-7-77----7-77-----7-77----
D|--------------------------

Chorus

e|------------------------------------------------------------------------
B|------------------------------------------------------------------------
G|-10-10-10-10-10-10-10--12-12-12-12-12-12-12--5555555--5555555-----------
D|-8--8--8--8--8--8--8---10-10-10-10-10-10-10--0000000--3333333-----------
A|-8--8--8--8--8--8--8---10-10-10-10-10-10-10--0000000--3333333-----------
D|-8--8--8--8--8--8--8---10-10-10-10-10-10-10--0000000--3333333-----------

Bridge
[ Tab from: http://www.guitartabs.cc/tabs/t/the_used/blue_and_yellow_tab_ver_2.html ]
e|---------------------------------------------------------
B|---------------------------------------------------------
G|---------------------------------------------------------
D|0~~------0~------0~------0~------8888888-----------------
A|0~~------0~------0~------0~------8888888-----------------
D|0~~8h9p8-0~8h9p8-0~8h9p8-0~8h9p8-8888888-----------------
                                   *******

Outro 

e|-----------------------------------------------------------------------------------
B|-----------------------------------------------------------------------------------
G|-----------------------------------------------------------------------------------
D|-8-8/10-10/0-0/3-3/8-8/10-10-0/3-3/8-8/10-10-0/3-3/8-8/10-10-0/3-3/8-8/10---
A|-8-8/10-10/0-0/3-3/8-8/10-10-0/3-3/8-8/10-10-0/3-3/8-8/10-10-0/3-3/8-8/10----
D|-8-8/10-10/0-0/3-3/8-8/10-10-03-3/8-8/10-10-0/3-3/8-8/10-10-0/3-3/8-8/10----

Outro (Continued)

e|-------------------
B|-------------------
G|-------------------
D|-10~~~-----------
A|-10~~~-----------
D|-10~~~-----------

 Itlof
Comments