The Used - Blue And Yellow Chords & Tabs

 

Blue And Yellow Chords & Tabs

The Used Chords & Tabs

Version: 1 Type: Tab 0 ratings
1 star 2 stars 3 stars 4 stars 5 stars
comments

Blue And Yellow Tab

   
The Used - Blue And Yellow

 (DROPPED D)
 Ring Out (~)

	Intro and Verse 6x
|----------------------------------------------------
|----------------------------------------------------
|----------------------------------------------------
|----------------------------------------------------
|---8888-777-88888888--------------------------------
|---0000-000-88888888--------------------------------

	Prechorus 2x
|----------------------------------------------------
|----------------------------------------------------
|-5555555555555555-10101010101010101010101010101010--
|-5555555555555555-10101010101010101010101010101010--
|-3333333333333333-8 8 8 8 8 8 8 8 8 8 8 8 8 8 8 8---
|----------------------------------------------------

	Chorus 1x 
|----------------------------------------------------
|----------------------------------------------------
|----------1212121212121212-1414141414141414-55555555
|-88888888-1010101010101010-1212121212121212-33333333
|-88888888-1010101010101010-1212121212121212-33333333
|-88888888-1010101010101010-1212121212121212-33333333

	Intro and Verse 5x
|----------------------------------------------------
|----------------------------------------------------
|----------------------------------------------------
|----------------------------------------------------
|---8888-777-88888888--------------------------------
|---0000-000-88888888--------------------------------
[ Tab from: http://www.guitartabs.cc/tabs/t/the_used/blue_and_yellow_tab.html ]
	Prechorus 2x
|----------------------------------------------------
|----------------------------------------------------
|-5555555555555555-10101010101010101010101010101010--
|-5555555555555555-10101010101010101010101010101010--
|-3333333333333333-8 8 8 8 8 8 8 8 8 8 8 8 8 8 8 8---
|----------------------------------------------------

	Chorus 2x
|----------------------------------------------------
|----------------------------------------------------
|----------1212121212121212-1414141414141414-55555555
|-88888888-1010101010101010-1212121212121212-33333333
|-88888888-1010101010101010-1212121212121212-33333333
|-88888888-1010101010101010-1212121212121212-33333333
	 
	Bridge 1x
|----------------------------------------------------
|----------------------------------------------------
|----------------------------------------------------
|-0------8------0------8------0------8------0------8-
|-0------8------0------8------0------8------0------8-
|-0------8------0------8------0------8------0------8-

	Outro 4x
|----------------------------------------------------
|----------------------------------------------------
|----------1212121212121212-1414141414141414-55555555
|-88888888-1010101010101010-1212121212121212-33333333
|-88888888-1010101010101010-1212121212121212-33333333
|-88888888-1010101010101010-1212121212121212-33333333

	Outro 4x
|----------------------------------------------------
|----------------------------------------------------
|---------12~------14~------5~-----------------------
|-8~------10~------12~------3~-----------------------
|-8~------10~------12~------3~-----------------------
|-8~------10~------12~------3~-----------------------

	End With This
|----------------------------------------------------
|----------------------------------------------------
|---------12~------14~-------------------------------
|-8~------10~------12~-------------------------------
|-8~------10~------12~-------------------------------
|-8~------10~------12~-------------------------------
Comments